Oops, an error
Loading. Please wait.

Can You Find It Tab

451 views 3 this week
no commentswrite comment
1 2 3 4 5
please rate
add to favorites
launch autoscroll
font size
0
reset
how to read this tab
guitar tuner
Tab Pro tools
  • play this tab
  • loop segment
  • change instrument
  • show fretboard
  • metronome
×
Best way to learn
"Can You Find It"
Autoscroll
slow
fast
+/-
esc
set tempo
stop
Contributor
Tabbers playing skills
intermediate
Artist         : They Might Be Giants are John Flansburgh & John Linnell
Track          : Can You Find It?
Album          : Here Come the ABCs
Joined by      : Dan Miller(Guitar), Danny WeinKauf(Bass), Marty Beller
                 (Drums)
Transcribed By : David A. Dean  (davidadean@bellsouth.net)
Guitar(s)      : Acoustic Steel String/Classic Acoustic
Tuning         : Standard
Notes          : This tablature describes the acoustic guitars only,
                 which form the body of the song. It sounds like The
                 Steel String is used on all but the final verse and
                 final chorus where a classical guitar is picked and
                 strummed. There are also some slight electric guitar
                 accents heard throughout the song. The ryhthm is based
                 on 4/4. The Chords used are at the bottom of the
file.   
 
# This file is all the transcriber's own work. 
# If you find corrections are needed, please notify me. 
                                                      
                            - Can You Find It? -
                            They Might Be Giants
               Words and Music by John Linnell/John Flansburgh
 

The song structure is :
                                      
1) Main Verse         
2) Chorus           
3) Main Verse       
4) Chorus           
5) Key Change Verse 
6) Bridge           
7) Key Change Verse 
8) Final Verse
9) Final Chorus
 

(Main Verse Begin)
E--3---3-----3-3-------0-----0-0---|-----3-----3-3-------3-----3-3---|
B--3---3-----3-3-------3-----3-3---|-----3-----3-3-------3-----3-3---|
G--0---0-----0-0---2---2-----2-2---|-----0-----0-0-------0-----0-0---|
D--0---0-----0-0---0---0-----0-0---|---------------------------------|
A----------------------------------|-2---------------3---------------|
E----------------------------------|---------------------------------|
 
|--1---&---2-e-&---3---&---4-e-&-----1---&---2-e-&---3---&---4-e-&---|
 "Find"                           "Hiding"
 "Where's"                        "See it"
 
 
E------3-------3-------3-------3---|-----0-------0---0-------0-------|
B------3-------3-------3-------3---|-----1-------3---1-------1-------|
G------0-------0-------2-------0---|-----0-------0---0-------0-------|
D------------------0---------------|-----2-------0---2-------2-------|
A----------3-----------------------|-0-------2-------3-------3-------|
E--3-----------------------3-------|---------------------------------|
 
|--1---&---2---&---3---&---4---&-----1---&---2---&---3---&---4---&---|
  "On"                             "Part"
  "In"                             "At"  
 
                                                      (Main Verse End)
E------3-----3-3-------0-----0-0---|-----3-----3-3-------0-----0-0---|
B------3-----3-3-------3-----3-3---|-----3-----3-3-------1-----1-1---|
G------0-----0-0-------2-----2-2---|-----0-----0-0-------0-----0-0---|
D------0-----0-0---0---0-----0-0---|-----0-----0-0-------2-----2-2---|
A------2-----2-2-------------------|-----2-----2-2---3---------------|
E--3-------------------------------|-3-------------------------------|
 
|--1---&---2-e-&---3---&---4-e-&-----1---&---2-e-&---3---&---4-e-&---|
  "Fit"                          "Somewhere"
  "R"                            "Where"
 

(Chorus Begin)
E--3---3---0---0---|-3---3---3---3---|-3---3---0---0---|
B--3---3---3---3---|-3---3---1---1---|-3---3---3---3---|
G--0---0---2---2---|-0---0---0---0---|-0---0---2---2---|
D--0---0---0---0---|-0---0---2---2---|-0---0---0---0---|
A--2---2---0---0---|-2---2---3---3---|-2---2---0---0---|
E--3---3-----------|-3---3-----------|-3---3-----------|
 
|--1---2---3---4-----1---2---3---4-----1---2---3---4---|
 "Find"            "Find"            "Find"
 
        (Chorus End)
E--3---3---3---3---|
B--1---1---1---1---|
G--0---0---0---0---|
D--2---2---2---2---|
A--3---3---2---2---|
E------------------|
 
|--1---2---3---4---|
  "Is"
 

(Key Change Verse Begin)
E--2---2---2-------|-0---0---0---0---|-0---------------|
B--3---3---3---3---|-1---1---1---1---|-0---3---3-------|
G--2---2---2---0---|-0---0---0---0---|-0---2---0-------|
D--0---0---0---0---|-2---2---2---2---|-2---0---0-------|
A--------------2---|-3---3---3---3---|-2---0---2-------|
E--------------3---|-----------------|-0-------3-------|
 
|--1---2---3---4-----1---2---3---4-----1---2---3---4---|
 "Where"            "L"             "Under"
 "Where"            "M"             "Invisible"
 

E--0-------3-------|-2---2---2-------|-0---0---0---0---|
B--0---3---3-------|-3---3---3---3---|-1---1---1---1---|
G--0---2---0-------|-2---2---2---0---|-0---0---0---0---|
D--2---0---0-------|-0---0---0---0---|-2---2---2---2---|
A--2---0---2-------|-------------2---|-3---3---3---3---|
E--0-------3-------|-------------3---|-----------------|
 
|--1---2---3---4-----1---2---3---4-----1---2---3---4---|
 "Growing"         "Where"            "Be"
 "That"            "Where"            "Be"
 

E--0---------------|-0-------3-------|-0-------0---2---|
B--0---3---3-------|-0---3---3-------|-0-------1---3---|
G--0---2---0-------|-0---2---0-------|-0-------0---2---|
D--2---0---0-------|-2---0---0-------|-2-------2---0---|
A--2---0---2-------|-2---0---2-------|-2-------3-------|
E--0-------3-------|-0-------3-------|-0---------------|
 
|--1---2---3---4-----1---2---3---4-----1---2---3---4---|
 "Looked"          "Sorry"          "Part"    
 "Right"           "Give"           "Up-Side Down"
 

(Key Change Verse End)
E--3---3---3---3---|
B--3---3---3---3---|
G--0---0---0---0---|
D--0---0---0---0---|
A--2---2---2---2---|
E--3---3---3---3---|
 
|--1---2---3---4---|
 "Fair"
 "U"
 

(Bridge Begin)
E------3---------------3-----------|-----3---------------3-----------|
B----------3---------------3-------|---------3---------------3-------|
G--0---------------0---------------|-0---------------0---------------|
D----------------------------------|-2-------------------------------|
A------------------2---------------|-----------------3---------------|
E--3-------------------------------|---------------------------------|
 
|--1---&---2---&---3---&---4---&-----1---&---2---&---3---&---4---&---|
 

E------3---------------3-----------|-----3-----------3-----------3---|
B----------3---------------3-------|---------3-----------3-----------|
G--0---------------0---------------|-0-----------0-----------0-------|
D------------------0---------------|---------------------------------|
A----------3-----------------------|-0-------2-------3---------------|
E--3-----------------------3-------|---------------------------------|
 
|--1---&---2---&---3---&---4---&-----1---&---2---&---3---&---4---&---|
 

E------3---------------3-----------|-----3-----------3-------3-------|
B----------3---------------3-------|---------3-----------3---3-------|
G------------------0---------------|-0-----------0-----------0-------|
D--0---------------0---------------|---------------------------------|
A----------------------------------|-----------------2---------------|
E----------------------------------|-3-------------------------------|
 
|--1---&---2---&---3---&---4---&-----1---&---2---&---3---&---4---&---|
 
                          (Bridge End)
E--3---3---2---2---|-0---0---0---0---|
B--3---3---3---3---|-1---1---1---1---|
G--0---0---2---2---|-0---0---0---0---|
D--0---0---0---0---|-2---2---2---2---|
A--2---2---0---0---|-3---3---3---3---|
E--3---3-----------|-----------------|
 
|--1---2---3---4-----1---2---3---4---|
 

(Final Verse Begin)
E----------------------------------|---------------------------------|
B----------3---------------3-------|---------3---------------3-------|
G------0---------------2-----------|-----0---------------------------|
D------------------0---------------|-2-------------------2-----------|
A----------------------------------|-----------------3---------------|
E--3-------------------------------|---------------------------------|
 
|--1---&---2---&---3---&---4---&-----1---&---2---&---3---&---4---&---|
 "Letters"                        "Picture" 
 
E----------------------------------|---------------------3-----------|
B--3-------1-------3-------3-------|-1-------3----------3------------|
G----------------------------------|-------------------5-------------|
D------------------0---------------|------------------5--------------|
A----------2-----------------------|-0-------2-------3---------------|
E--3-----------------------3-------|---------------------------------|
 
|--1---&---2---&---3---&---4---&-----1---&---2---&---3---&---4---&---|
  "B"                               "P"
 
                                                     (Final Verse End)
E--3-----------3---2---------------|-----------------1-------0-------|
B------3---------------3-----------|-3-------3-------------------1---|
G----------0---------------2-------|-----0-------0-------------------|
D--0---------------0---------------|-----------------2---2-----------|
A----------------------------------|---------2-----------------------|
E----------------------------------|-3-------------------------------|
 
|--1---&---2---&---3---&---4---&-----1---&---2---&---3---&---4---&---|
 "Sideways"                      "Mentioned"
 
 
 
(Final Chorus Begin)
E----------------------------------|---------------------------------|
B--------------0---3-------0-------|---------0-------1---------------|
G----------0-----------0-------0---|-----0---------------0-------0---|
D------0---------------------------|-0-----------2-----------2-------|
A----------------------------------|---------------------------------|
E----------------------------------|---------------------------------|
 
|--1---&---2---&---3---&---4---&-----1---&---2---&---3---&---4---&---|
 "Find"                            "Find"
   
E----------------------------------|---------------------------------|
B----------0-------3-------0-------|---------0-------1---------------|
G------0-------0-------0-------0---|-----0---------------0-------0---|
D--0-------------------------------|-0-----------2-----------2-------|
A----------------------------------|---------------------------------|
E----------------------------------|---------------------------------|
 
|--1---&---2---&---3---&---4---&-----1---&---2---&---3---&---4---&---|
 "Find"                            "Find"
 
E--3-------3-----2-2-------2-----0-|-0-------0-----0-0-------0-----3-|
B--0-------0-----3-3-------3-----1-|-1-------1-----1-1-------1-----0-|
G--0-------0-----2-2-------2-----0-|-0-------0-----0-0-------0-----0-|
D--0-------0-----0-0-------0-----2-|-2-------2-----2-2-------2-----0-|
A--2-------2---------------------3-|-3-------3-----3-3-------3-----2-|
E--3-------3-----------------------|-------------------------------3-|
 
|--1---&---2---&-a-3---&---4---&-a---1---&---2---&-a-3---&---4---&-a-|
 "Find"                            "Find"
 
                                                    (Final Chorus End)
E--3-------3-----2-2-------2-----3-|-3-----0-0-----3-3---------------|
B--0-------0-----3-3-------3-----0-|-0-----1-1-----0-0---------------|
G--0-------0-----2-2-------2-----0-|-0-----0-0-----0-0---------------|
D--0-------0-----0-0-------0-----0-|-0-----2-2-----0-0---------------|
A--2-------2---------------------2-|-2-----3-3-----2-2---------------|
E--3-------3---------------------3-|-3-------------3-3---------------|
 
|--1---&---2---&-a-3---&---4---&-a---1---&-a-2---&-a-3---------------|
 "Find"                            "Are"
 

   G5     D sus2     G      C sus2   D sus4     Am7      G/B
 EADGBE   EADGBE   EADGBE   EADGBE   EADGBE    EADGBE   EADGBE
 3x0033   x00230   320003   x3x033   xx0233    x02010   x20030
 
   C        Em       D5       D      G(2nd)    C(2nd)
 EADGBE   EADGBE   EADGBE   EADGBE   EADGBE    EADGBE  
 x32010   022000   x0023x   xx0232   320033    x32013
comments
We did not receive enough feedback on this tab! Please rate:
print report bad tab
1 2 3 4 5
I want to post or [tab]
guest
You may want to rate the tab now too:
select rating
Please do not post tabs as comments. Select "correction" instead!