Oops, an error
Loading. Please wait.

Damn Good Times Tab

1,872 views 1 this week
no commentswrite comment
1 2 3 4 5
excellent!
x 4
add to favorites
launch autoscroll
font size
0
reset
how to read this tab
guitar tuner
Tab Pro tools
  • play this tab
  • loop segment
  • change instrument
  • show fretboard
  • metronome
Autoscroll
slow
fast
+/-
esc
set tempo
stop
Contributor
Artist: They Might Be Giants
Song: Damn Good Times
Album: The Spine


Intro:
C
I'm not much of a natural dancer
 D
But I know a girl who's a natural dancer
 F
You could call her a jumpin' bean
           C                                  G
She's got ants in her pants and she's gonna dance

  C
I know a girl who's a jumpin' bean
  D
She's got keys and a token when she hits the scene
  F
Yeah I know a girl who's got a record machine
  C                                      G
She acts like David Lee Roth when he turned 21


Chorus:
   C
I know a girl who's a natural dancer
   D
With a cape and a hat she's a natural dancer
   F
She coughs and she laughs and she makes a lot of calls
  C                         G
And all of the people applaud
                  C
As she leaves the store
                  D7
As she leaves the store (damn good times)
F                 C     G
All of the people applaud (damn good times)

Bridge/Guitar solo:
( S = slide; B = bend; H = hammer on; P = pull off )

     S           S           S           S
e|-------------------------------------------------------------------|
B|-------------------------------------------------------------------|
G|--------8-----------8-----------8----------------------------------|
D|----10--8--5----10--8--5----10--8--5----10-------------------------|
A|----10--6--5----10--6--5----10--6--5----10-------------------------|
E|--3\8------3--3\8------3--3\8------3--3\8--------------------------|


e|-------------------------------------------------------------------|
B|-------------------------------------------------------------------|
G|------8------8-----5-----------------------------------------------|
D|--10--8--10--8--3--5--10--8----------------------------------------|
A|--10--6--10--6--3--3--10--8----------------------------------------|
E|--8------8------1-----8---6----------------------------------------|

     S                   B        B      B      B
e|-------------------------------------------------------------------|
B|-------------------------------------------------------------------|
G|--6\8-8------------8-10(12)---10(12)-10(12)-10(12)-8---------------|
D|--6\8-8-10-10-8-10-----------------------------------10------------|
A|-------------------------------------------------------------------|
E|-------------------------------------------------------------------|

         H                       B        B            H
e|-----------------8-11-8----------------------8---------------------|
B|--7-8------------8----8----------------------8---------------------|
G|------7^8-8-------------10-8-10(12)---10(12)---8---------8---------|
D|------------10-----------------------------------10-8^10-----------|
A|-----------------------------------------------------------10------|
E|-------------------------------------------------------------------|

          B         B                     B            P
e|-------------11-----------8-10-11-----13(15)-13-11-13^11-----------|
B|-----------------------11---------8----------------------13--------|
G|--8-8-10(12)----10(12)---------------------------------------------|
D|--8-8--------------------------------------------------------------|
A|-------------------------------------------------------------------|
E|-------------------------------------------------------------------|

                                                             B
e|------8--------------7-8--------7-8-----7-8-----8------------------|
B|-8-11-8-11-8-11-8-11-----7-8--------7-8-----7-8---8----------------|
G|-----------------------------10---------------------10-8-10(12)-8--|
D|-------------------------------------------------------------------|
A|-------------------------------------------------------------------|
E|-------------------------------------------------------------------|


e|------8-8-8---------------------8----------------------------------|
B|------8-8-8---------------------8----------------------------------|
G|------------8----8-10-8-----------8--------------------------------|
D|--10----------10--------10-8-10-----10-8-10-8----------------------|
A|----------------------------------------------10----8--------------|
E|-------------------------------------------------11---11-8---------|

        H                 H                  S
e|-------------------------------------------------------------------|
B|----------10-8--------------10-8-----------------------------------|
G|-----8^10-10-8---------8^10-10-8-----------------------------------|
D|--10-8^10------10-8-10-8^10------10-8-10-10\-----------------------|
A|-------------------------------------------------------------------|
E|-------------------------------------------------------------------|

e|-------------------------------------------------------------------|
B|-------------------------------------------------------------------|
G|-------------------------------------------------------------------|
D|--10-10-10-10-12-12-12-12-15-15-15-15-10-10-10-10------------------|
A|--10-10-10-10-12-12-12-12-15-15-15-15-10-10-10-10------------------|
E|--8--8--8--8--10-10-10-10-13-13-13-13-8--8--8--8-------------------|

                                          S
e|-------------------------------------------------------------------|
B|-------------------------------------------------------------------|
G|-------------------------------------------------------------------|
D|--10-10-10-10-12-12-12-12-15-15-15-15-10\--------------------------|
A|--10-10-10-10-12-12-12-12-15-15-15-15-10\--------------------------|
E|--8--8--8--8--10-10-10-10-13-13-13-13-8-\--------------------------|
comments
print report bad tab
I want to post or [tab]
guest
You may want to rate the tab now too:
select rating
Please do not post tabs as comments. Select "correction" instead!