Oops, an error
Loading. Please wait.

Doctor Worm Bass

version 1
version 1

Whole song

Interactive

4,407 views 9 this week
no commentswrite comment
1 2 3 4 5
x 4
add to favorites
×
Save as Personal and add changes to this tab that will be seen only by you. Learn more ›
×
You can save this tab as Personal to edit and correct it or add notes. All changes will be seen only by you. Learn more »
save as personal
new!
launch autoscroll
font size
0
reset
guitar tuner
Autoscroll
slow
fast
+/-
esc
set tempo
stop

  Intro:
G|----------------|-----------------|-----------------|
D|----------------|-----------------|-----------------|
A|------1--2-2-24-|------1----1-2-4-|-----------------|
E|-2-2-2----------|-2-2-2---4-------|-2--2-2---2--2-2-|


  Verse:
G|-----------------|-----------------|-----------------|-----------------|
D|-----------------|-----------------|-----------------|-----------------|
A|----4-4---6------|-2--------4------|----4-4---6------|-2--------4------|
E|-2-----------6-6-|----2-2------4-4-|-2-----------6-6-|----2-2------4-4-|


G|------------------|------------------|------------------|
D|------------------|------------------|------------------|
A|-2-2-2-2--4-4-4-4-|----------6-6-6-6-|-2-2-2-2--4-4-4-4-|
E|------------------|-2-2-2-2----------|------------------|


G|-----------------|-----------------|-----------------|-----------------|
D|-----------------|-----------------|-----------------|-----------------|
A|----4-4---6------|-2--------4------|----4-4---6------|-2--------4------|
E|-2-----------6-6-|----2-2------4-4-|-2-----------6-6-|----2-2------4-4-|


G|------------------|------------------|------------------|
D|------------------|------------------|------------------|
A|-2-2-2-2--4-4-4-4-|----------6-6-6-6-|-2-2-2-2--4-4-4-4-|
E|------------------|-2-2-2-2----------|------------------|


  Bridge
G|------------------|----------------|-----------------|
D|------------------|----------------|-----------------|
A|-5-5-5-5--7-7-7-7-|------4--5-5-57-|------4----4-5-7-|
E|------------------|-5-5-5----------|-5-5-5---7-------|

G|--------------------------|--------------------------|
D|--------------------------|--------------------------|
A|--------------------------|--------------------------|
E|-2--2-2---2--2-2---2--2-2-|-2--2-2---2--2-2---2--2-2-|

G|--------------------------|--------------------------|
D|--------------------------|--------------------------|
A|--------------------------|--------------------------|
E|-2--2-2---2--2-2---2--2-2-|-2--2-2---2--2-2---2--2-2-|

G|--------------------|--------------------|---------------|
D|--------------------|--------------------|---------------|
A|--------------------|-6-6--8-8--9-9--6-6-|-------6--9----|
E|-4-4--6-6--7-7--4-4-|--------------------|-7--9----------|


  Bass Solo
G|------------------------------------------------------------------------|
D|--------8--9--8--11--11--9--9--8--8-------------------------------------|
A|--9--11-----------------------------11--11--9--9--8-------------------4-|
E|9---------------------------------------------------11--9--7--6--4--2---|


  Intro Again:
G|----------------|-----------------|
D|----------------|-----------------|
A|------1--2-2-24-|------1----1-2-4-|
E|-2-2-2----------|-2-2-2---4-------|


  Bridge (last 3 measures)
G|--------------------|--------------------|---------------|
D|--------------------|--------------------|---------------|
A|--------------------|-6-6--8-8--9-9--6-6-|-------6--9----|
E|-4-4--6-6--7-7--4-4-|--------------------|-7--9----------|


  Verse
G|--------------------|------------------|------------------|
D|--------------------|------------------|------------------|
A|-9\2-2-2-2--4-4-4-4-|----------6-6-6-6-|-2-2-2-2--4-4-4-4-|
E|--------------------|-2-2-2-2----------|------------------|

G|-----------------|-----------------|-----------------|-----------------|
D|-----------------|-----------------|-----------------|-----------------|
A|----4-4---6------|-2--------4------|----4-4---6------|-2--------4------|
E|-2-----------6-6-|----2-2------4-4-|-2-----------6-6-|----2-2------4-4-|

G|------------------|------------------|------------------|
D|------------------|------------------|------------------|
A|-2-2-2-2--4-4-4-4-|----------6-6-6-6-|-2-2-2-2--4-4-4-4-|
E|------------------|-2-2-2-2----------|------------------|


  Outro:
G|------------------|----------------|-----------------|
D|------------------|----------------|-----------------|
A|-5-5-5-5--7-7-7-7-|------1--2-2-24-|------1----1-2-4-|
E|------------------|-2-2-2----------|-2-2-2---4-------|

G|----------------|-----------------|-----|
D|----------------|-----------------|-----|
A|------1--2-2-24-|------1----1-2-4-|-----|
E|-2-2-2----------|-2-2-2---4-------|--2--|
Suggest correction
comments
print report bad tab
guest
You may want to rate the tab now too:
select rating
Wanna post a correction for this tab? Suggest correction