Oops, an error
Loading. Please wait.

Dr Worm Tab

version 1
version 1

Whole song

Interactive

24,078 views 27 this week
3 commentsread comments
1 2 3 4 5
x 11
add to favorites
launch autoscroll
font size
0
reset
how to read this tab
guitar tuner
Autoscroll
slow
fast
+/-
esc
set tempo
stop
Help us to improve Ultimate-Guitar.com Take our survey!
×
[Intro]
e|--------7--|----------|-------7-|----------|-------|
B|--8-8-8----|--------7-|-8-8-8---|--------7-|-8-----|
G|-----------|-9--9-9---|---------|--7-7-9---|-------|
D|-----------|----------|---------|----------|-------|
A|-----------|----------|---------|----------|-------|
E|-----------|----------|---------|----------|-------|

[Verse]
     G                Em      C               D            G
They call me Dr. Worm.   Good morning how are you? I'm Dr. Worm
                  Em          C          D
I'm interested in things. I'm not a real doctor but I
C         G/Bb                Em
Am a real worm I am an actual worm.
  C           D
I live like a worm
      G                      Em
And I like to play the drums
  C                 D                  G         Em
I think I'm getting good but I can handle critisim,
     C               G
I'll show you what I know and you can
C              G/Bb                            Em
Tell me if you think I'm getting better on the drums
     C                D
I'll leave the fron unlocked 'cause
        Eb       F
I can't hear the door bell

[Instrumental]
e|--------7--|----------|-------7-|----------|-------|
B|--8-8-8----|--------7-|-8-8-8---|--------7-|-8-----|
G|-----------|-9--9-9---|---------|--7-7-9---|-------|
D|-----------|----------|---------|----------|-------|
A|-----------|----------|---------|----------|-------|
E|-----------|----------|---------|----------|-------|

(alternate between G and C)
G       C     G    C    G     C       G   C   G        C  G        C   G      C
   When I get into it I can't tell if you are watching me twirling the stick.
Am     C        Em     G
When I give the signal my friend
C               Cm
Rabbi Bole will play the solo.

[Solo]
e|-----|---------------|---------|-------------|--------------|--------------|--------------|
B|-----|-------0-1-0---|-------3-|-3--1--1--0--|-0------------|--------------|--------------|
G|-----|-0--2----------|---------|-------------|----2---2---0-|--0-----------|--------------|
D|--0--|---------------|---------|-------------|--------------|-----4--2--0--|--2-----------|
A|-----|---------------|---------|-------------|--------------|--------------|-----3--2--0--|
E|-----|---------------|---------|-------------|--------------|--------------|--------------|

[Instrumental]
e|--------7--|----------|-------7-|----------|-------|
B|--8-8-8----|--------7-|-8-8-8---|--------7-|-8-----|
G|-----------|-9--9-9---|---------|--7-7-9---|-------|
D|-----------|----------|---------|----------|-------|
A|-----------|----------|---------|----------|-------|
E|-----------|----------|---------|----------|-------|

Am      C        Em      G
Someday somebody else besides me
     C             Cm
Will call me by my stage name they will

(guitar tacet - hold out Cm)
Call me Dr. Worm. Good morning how are you I'm Dr. Worm.
                                                    G (bass hit)
I'm interested in things. I'm not a real doctor but I
C         G/Bb                Em
Am a real worm I am an actual worm.
  C           D
I live like a worm
      G                      Em
And I like to play the drums
  C                 D                  G         Em
I think I'm getting good but I can handle critisim,
     C               G
I'll show you what I know and you can
C              G/Bb                            Em
Tell me if you think I'm getting better on the drums
C              D
I'm not a real doctor but they
Eb      F   G                       G
Call me Dr. Woooooooooooooooooooooooooooooooooooooorm!

[Outro]
e|--------7--|----------|-------7-|----------|-------|
B|--8-8-8----|--------7-|-8-8-8---|--------7-|-8-----|
G|-----------|-9--9-9---|---------|--7-7-9---|-------|
D|-----------|----------|---------|----------|-------|
A|-----------|----------|---------|----------|-------|
E|-----------|----------|---------|----------|-------|
Suggest correction
comments
print report bad tab
3 comments total.
0 reply
601210 10 Apr 04, 2008 08:58 AM

How do you play G/Bb?

0 reply
BassFishin 906 May 05, 2008 08:31 PM

i personally think maybe you wrote this half a step up, i played the chords you wrote, then tried playing them up one fret (and yes, i am perfectly tuned to E) and it matches up perfectly. excellent effort though!

0 reply
Hagane1340 10 Dec 13, 2008 10:44 AM

This should be played with a capo on the first fret.

guest
You may want to rate the tab now too:
select rating
Wanna post a correction for this tab? Suggest correction