Oops, an error
Loading. Please wait.

Dr Worm Tab

version 2
version 2

Whole song

Interactive

1,602 views 1 this week
no commentswrite comment
1 2 3 4 5
please rate
add to favorites
launch autoscroll
font size
0
reset
how to read this tab
guitar tuner
Autoscroll
slow
fast
+/-
esc
set tempo
stop
Help us to improve Ultimate-Guitar.com Take our survey!
×
Author
  Here is the bass tab for this neat little song. I hop everyone can use and enjoy it. 
    
  Ken R.


  Intro:
G|------------------|------------------|-----------------|
D|------------------|------------------|-----------------|
A|-------1-2--1-2-4-|-------1----1-2-4-|-----------------|
E|-2-2-2------------|-2-2-2---4--------|-2--2-2---2--2-2-|


  Verse:
G|-----------------|-----------------|-----------------|-----------------|
D|-----------------|-----------------|-----------------|-----------------|
A|----4-4---6------|-2--------4------|----4-4---6------|-2--------4------|
E|-2-----------6-6-|----2-2------4-4-|-2-----------6-6-|----2-2------4-4-|


G|------------------|------------------|------------------|
D|------------------|------------------|------------------|
A|-2-2-2-2--4-4-4-4-|----------6-6-6-6-|-2-2-2-2--4-4-4-4-|
E|------------------|-2-2-2-2----------|------------------|


G|-----------------|-----------------|-----------------|-----------------|
D|-----------------|-----------------|-----------------|-----------------|
A|----4-4---6------|-2--------4------|----4-4---6------|-2--------4------|
E|-2-----------6-6-|----2-2------4-4-|-2-----------6-6-|----2-2------4-4-|


G|------------------|------------------|------------------|
D|------------------|------------------|------------------|
A|-2-2-2-2--4-4-4-4-|----------6-6-6-6-|-2-2-2-2--4-4-4-4-|
E|------------------|-2-2-2-2----------|------------------|


  Bridge
G|------------------|------------------|------------------|
D|------------------|------------------|------------------|
A|-5-5-5-5--7-7-7-7-|-------4-5--4-5-7-|-------4-5--4-5-7-|
E|------------------|-5-5-5------------|-5-5-5------------|

G|--------------------------|--------------------------|
D|--------------------------|--------------------------|
A|--------------------------|--------------------------|
E|-2--2-2---2--2-2---2--2-2-|-2--2-2---2--2-2---2--2-2-|

G|--------------------------|--------------------------|
D|--------------------------|--------------------------|
A|--------------------------|--------------------------|
E|-2--2-2---2--2-2---2--2-2-|-2--2-2---2--2-2---2--2-2-|

G|--------------------|--------------------|---------------|
D|--------------------|--------------------|---------------|
A|--------------------|-6-6--8-8--9-9--6-6-|-------6--9/14-|
E|-4-4--6-6--7-7--4-4-|--------------------|-7--9----------|


  Guitar Solo
G|-----------------------|
D|-----------------------|
A|-----6---2---4-------6-|
E|-2---------------2-----|


  Intro Again:
G|-------------------------------------|
D|-------------------------------------|
A|-------1-2--1-2-4-|-------1-2--1-2-4-|
E|-2-2-2------------|-2-2-2------------|


  Bridge (last 3 measures)
G|--------------------|--------------------|---------------|
D|--------------------|--------------------|---------------|
A|--------------------|-6-6--8-8--9-9--6-6-|-------6--9/14-|
E|-4-4--6-6--7-7--4-4-|--------------------|-7--9----------|


  Verse
G|--------------------|------------------|------------------|
D|--------------------|------------------|------------------|
A|-9\2-2-2-2--4-4-4-4-|----------6-6-6-6-|-2-2-2-2--4-4-4-4-|
E|--------------------|-2-2-2-2----------|------------------|

G|-----------------|-----------------|-----------------|-----------------|
D|-----------------|-----------------|-----------------|-----------------|
A|----4-4---6------|-2--------4------|----4-4---6------|-2--------4------|
E|-2-----------6-6-|----2-2------4-4-|-2-----------6-6-|----2-2------4-4-|

G|------------------|------------------|------------------|
D|------------------|------------------|------------------|
A|-2-2-2-2--4-4-4-4-|----------6-6-6-6-|-2-2-2-2--4-4-4-4-|
E|------------------|-2-2-2-2----------|------------------|


  Outro:
G|------------------|------------------|------------------|
D|------------------|------------------|------------------|
A|-5-5-5-5--7-7-7-7-|-------1-2--1-2-4-|-------1----1-2-4-|
E|------------------|-2-2-2------------|-2-2-2---4--------|

G|------------------|------------------|-----|
D|------------------|------------------|-----|
A|-------1-2--1-2-4-|-------1----1-2-4-|-----|
E|-2-2-2------------|-2-2-2---4--------|--2--|
Suggest correction
Give kudos to tab author, rate the tab!
1 2 3 4 5
comments
print report bad tab
guest
You may want to rate the tab now too:
select rating
Please do not post tabs as comments. Select "correction" instead!