Oops, an error
Loading. Please wait.

Electric Car Bass Tab

200 views 1 this week
no commentswrite comment
1 2 3 4 5
please rate
add to favorites
launch autoscroll
font size
0
reset
guitar tuner
Autoscroll
slow
fast
+/-
esc
set tempo
stop
Help us to improve Ultimate-Guitar.com Take our survey!
×
Contributor
Difficulty
intermediate
G|------------------------------------------------|
D|------------------------------------------------|
A|---------3-----------------3---------5----------|
E|-1----------------1---------------------------3-|

Break 1:
G|---------------|
D|---------------|
A|---------------|
E|-3-3-3-3-3-3-3-|

Verse:
G|---------------------------------------------------------|
D|-3--33-3--3----------3-33-3-3----------------------------|
A|------------3-33-3-3----------3-33-3-3-5-55-5-5----------|
E|------------------------------------------------3-33-3-3-|

Break 2:
G|---------------0-|
D|---------0-2-3---|
A|---0-2-3---------|
E|-3---------------|

Chorus:
   "Lets take a ride..."      "To the West side..."
G|----5------5------5-------------5------5----------------|
D|-3----3-2----2-0----0----7-5-3----3-2----2-0-2-3----7-5-|
A|----------------------3--------------------------3------|
E|--------------------------------------------------------|...

   "How can you deny..."
G|----5------5------5----------|
D|-3----3-2----2-0----0----7-5-|
A|----------------------3------|
E|-----------------------------|...

"Won't you take a ride with me?"
G|----5------5-----------------|
D|-3-----3-3---3----5------5---|
A|---------------3----3--3---3-|
E|-----------------------------|  x2

Break 3:
G|-----------------|
D|-5-5-5-5-5-5-5-5-|
A|-----------------|
E|-----------------|

[Repeat Verse]

Bridge:
G|-----------------------------------------------|
D|-----------------------------------------------|
A|-8--8-8--8-10--10-10--10------10--10-6--6-6--6-|
E|-------------------------8--8------------------|...

G|-----------------------------------0-0-0-0-0-0-0-0-|
D|---------------------------------------------------|
A|-10--10------6--6------10--10----------------------|
E|--------8--8------6--6--------8--8-3-3-3-3-3-3-3-3-|

[Repeat Verse, Break 2, Chorus]

=drum break=

[Chorus x2]
Suggest correction new What's this?
You can suggest a correction to this tab. Community and Mods will review your correction and vote to approve or reject it.
comments
We did not receive enough feedback on this tab! Please rate:
print report bad tab
1 2 3 4 5
guest
You may want to rate the tab now too:
select rating
Please do not post tabs as comments. Select "correction" instead!