Oops, an error
Loading. Please wait.

Nothings Gonna Change My Clothes bass

287 views 1 this week
no commentswrite comment
1 2 3 4 5
3 more votes to show rating
add to favorites
×
Save as Personal and add changes to this tab that will be seen only by you. Learn more ›
×
You can save this tab as Personal to edit and correct it or add notes. All changes will be seen only by you. Learn more »
launch autoscroll
font size
0
reset
guitar tuner
edit
Autoscroll
slow
fast
+/-
esc
set tempo
stop
Author
Difficulty
Ok, so I couldn't find any bass tabs on the web for this song, and it sounds like there 
be. It sounds good over the song anyway.It sounds cool if you slap and pop the octaves, 
it's up to you.
So here it is

G|--------------------------------------------------------|
D|--------------------------------------------------------|
A|--------------------------------------44----------------|
E|------00------------------------------------------------|
Oh,the people are so happy now, their heads are caving in

G|--------------------------------------------------------|
D|--------------------------------------------------------|
A|---------------------------------22---------------------|
E|---22---------------------------------------------------|
I'm glad they are a snowman with protective rubber skin

G|----------------------------------------55--------------|
D|-----------55-------------------------------------------|
A|--------------------------------------3-----------------|
E|--------3-----------------------------------------------|
But every little thing's a domino that falls on different dots

G|----------------------------------------55--------------|
D|-----------55-------------------------------------------|
A|--------------------------------------3-----------------|
E|--------3-----------------------------------------2x----|
And crashes into everything that tries to make it stop

Repeat this for the rest of the verse...

Chorus:

G|---------------------------6----------2|
D|----2----------------------------------|
A|------------------------4---------0----|
E|-0-------------------------------------|
  And nothing's smelling like a rose

G|---3-----------------------------------4-----6|
D|-------2--------------------------------------|
A|1------------------------------------2-----4--|
E|-----0----------------------------------------|
But I don't care if no one's coming up for air

G|---2---------------------6--------2--------3-------|
D|-------2-------------------------------------------|
A|-0--------------------4---------0-------1----------|
E|-----0---------------------------------------------|
I know nothing's gonna change my clothes ever anymore

Bridge Fill  E|-0-1-2-1-| Play as much as needed.

Chorus x 1


LYRICS:
Oh, the people are so happy now, their heads are caving in
I'm glad they are a snowman with protective rubber skin
But every little thing's a domino that falls on different dots
And crashes into everything that tries to make it stop

And the mirror, it reflects a tiny dancing skeleton
Surrounded by a fleshy overcoat and swaddled in
A furry hat, elastic mask, a pair of shiny marble dice
Some people call them snake-eyes, but to me they look like mice

And nothing's smelling like a rose
But I don't care if no one's coming up for air
I know nothing's gonna change my clothes ever anymore

All the people are so happy now, their heads are caving in
I'm glad they are a snowman with protective rubber skin
But every little thing's a domino that falls on different dots
And crashes into everything that tries to make it stop

And nothing's smelling like a rose
But I don't care if no one's coming up for air
I know nothing's gonna change my clothes ever anymore

No, no, no, no
Nothing's smelling like a rose
But I don't care if no one's coming up for air
I know that nothing's gonna change my clothes ever anymore

            
            
Suggest correction
Creating personal tab
Creating personal tab
You can edit any tab online and save it as your Personal.

You can edit, replace or remove any tab part or add personal notes – all changes will be seen only by you.

Personal tabs can be accessed anytime from any device, even offline.
Learn more »
Give kudos to tab author, rate the tab!
1 2 3 4 5
comments
print report bad tab
guest
You may want to rate the tab now too:
select rating
Wanna post a correction for this tab? Suggest correction