Oops, an error
Loading. Please wait.

Road Movie To Berlin chords

version 2
version 2

Whole song

124 views 3 this week
no commentswrite comment
1 2 3 4 5
1 last vote to show rating
add to favorites
×
Save as Personal and add changes to this tab that will be seen only by you. Learn more ›
×
You can save this tab as Personal to edit and correct it or add notes. All changes will be seen only by you. Learn more »
launch autoscroll
font size
0
reset
transpose
0
reset
simplify chords
display chords
guitar tuner
edit
Autoscroll
slow
fast
+/-
esc
set tempo
stop
Author
Difficulty
Strumming
There is no strumming pattern for this song yet. and get +5 IQ
After the intro, I'm pretty sure he plays the regular versions of the chords.
Strumming: listen to the intro to get a feel for it; rest of the song is more or less 
"d, d u, u d" with the
last Bb of each verse getting 1 strum.

[Intro]
  (Strum each chord for one measure)
          F          A          D          D7
e|--------1----------5----------5----------5------|
B|--------1----------5----------7----------7------|
G|--------2----------6----------7----------5------|
D|----0-2-3----------7----------7----------7------|
A|--3-----3----------7----------5----------5------|
E|--------1----------5----------5----------5------|

    Bb Bb Bb  A      Bb Bb Bb  A
e|--6--6--6---5------6--6--6---5----------|
B|--6--6--6---5------6--6--6---5----------|
G|--7--7--7---6------7--7--7---6----------|
D|--8--8--8---7------8--8--8---7----------|
A|--8--8--8---7------8--8--8---7----------|
E|--6--6--6---5------6--6--6---5----------|


    Bb Bb Bb  C  B  Bb  A
e|--6--6--6---8--7--6---5----------|
B|--6--6--6---8--7--6---5----------|
G|--7--7--7---9--8--7---6----------|
D|--8--8--8---10-9--8---7----------|
A|--8--8--8---10-9--8---7----------|
E|--6--6--6---8--7--6---5----------|

N.C.       F                A
We're in a road movie to Berlin.
            D                    Bb
Can't drive out the way we drove in.
         A
So sneak out this glass of bourbon
          Bb
and we'll go.

N.C.       F                A
We were    once so close to Heaven.
      D                    Bb
Peter came out and gave us medals.
  A                            Bb
Declaring us the nicest of the damned.


[OPTIONAL Dial-A-Song part]
             F                A
You said you were the King of Liars
         D                        Bb
And I believed you and called you sire
      A                              Bb
But I realize now that I have been deceived

F                   A
Time won't find the lost.
      D
It'll sweep up our skeleton bones.
   Bb                 A               Bb
So take the wheel and I will take the pedals.

[Break]
  [Not as exciting without the drums and brass, but hey.]
e|----------------------------------------|
B|----------------------------------------|
G|-17 16-15-14------12--------------------|
D|-------------15------14---12------------|
A|----------------------------------------|
E|----------------------------------------|

e|----------------------------------------|
B|----------------------------------------|
G|-15-15-15-15-15-15-15-15-15-14----------|
D|----------------------------------------|
A|----------------------------------------|
E|----------------------------------------|

e|----------------------------------------|
B|----------------------------------------|
G|-15-15-15-14----15-15-15-17-16-15-14----|
D|----------------------------------------|
A|----------------------------------------|
E|----------------------------------------|

N.C.       F                A
We're in a road movie to Berlin.
            D                    Bb
Can't drive out the way we drove in.
         A
So sneak out this glass of bourbon
          Bb
and we'll go.

            
            
Suggest correction
Creating personal tab
Creating personal tab
You can edit any tab online and save it as your Personal.

You can edit, replace or remove any tab part or add personal notes – all changes will be seen only by you.

Personal tabs can be accessed anytime from any device, even offline.
Learn more »
Give kudos to tab author, rate the tab!
1 2 3 4 5
comments
print report bad tab
guest
You may want to rate the tab now too:
select rating
Wanna post a correction for this tab? Suggest correction