Oops, an error
Loading. Please wait.

Spy bass

321 views 1 this week
no commentswrite comment
1 2 3 4 5
1 last vote to show rating
add to favorites
×
Save as Personal and add changes to this tab that will be seen only by you. Learn more ›
×
You can save this tab as Personal to edit and correct it or add notes. All changes will be seen only by you. Learn more »
launch autoscroll
font size
0
reset
guitar tuner
edit
Autoscroll
slow
fast
+/-
esc
set tempo
stop
Spy
They Might Be Giants
Dial-A-Song

Standard tuning
-----------------------------------------------------------
Notes:  The end part is very random and I only included the
first couple recorded notes.  You can pretty much play anything
you want in the key.  The rest is mainly the pentatonic scale.
I've included the key changes (E, A, and B).  Enjoy
-----------------------------------------------------------
Spy


Intro:
  E
G|-------------------------------------|
D|-------------------------------------|
A|-------0-2-0---------0-2-0-----x2----| End intro.
E|--0--3-------3---0-3-------3---------|



Verse 1:

  E
G|-------------------------------------|
D|-------------------------------------|
A|-------0-2-0---------0-2-0-----------| 
E|--0--3-------3-0--0-3------3---------|

  A
G|-------------------------------------|
D|-------0-2-0---------0-2-0-----------|
A|--0--3-------3-0--0-3------3---------|
E|-------------------------------------|

  E
G|-------------------------------------|
D|-------------------------------------|
A|-------0-2-0---------0-2-0------x2---| 
E|--0--3-------3-0--0-3------3---------|

  A
G|-------------------------------------|
D|-------0-2-0---------0-2-0-----------|
A|--0--3-------3-0--0-3------3---------|
E|-------------------------------------|

  E
G|-------------------------------------|
D|-------------------------------------|
A|-------0-2-0---------0-2-0-----------|
E|--0--3-------3-0--0-3------3---------|



Chorus:

  B                A
G|-------------------------------------|
D|---------2-4-2-0-------------2-0-----|
A|--2--2-2---------2--0--0-0-3-----3-0-|
E|-------------------------------------|

          Quickly
  B         | |       A
G|-------------------------------------|
D|----------------------------2--------|
A|--2-2-2-2-2-2-2-2-2-0-0-0-0---0------|
E|-------------------------------------|



Post-chorus:

  E
G|-------------------------------------|
D|-------------------------------------|
A|-------0-2-0---------0-2-0-----x2----| 
E|--0--3-------3---0-3-------3---------|



Verse 2:

  E
G|-------------------------------------|
D|-------------------------------------|
A|-------0-2-0---------0-2-0-----------|
E|--0--3-------3-0--0-3------3---------|

 A
G|-------------------------------------|
D|-------0-2-0---------0-2-0-----------|
A|--0--3-------3-0--0-3------3---------|
E|-------------------------------------|

  E
G|-------------------------------------|
D|-------------------------------------|
A|-------0-2-0---------0-2-0------x2---| 
E|--0--3-------3-0--0-3------3---------|

  A
G|-------------------------------------|
D|-------0-2-0---------0-2-0-----------|
A|--0--3-------3-0--0-3------3---------|
E|-------------------------------------|

  E
G|-------------------------------------|
D|-------------------------------------|
A|-------0-2-0---------0-2-0-----------|
E|--0--3-------3-0--0-3------3---------|

  A                   E
G|-------------------------------------|
D|---------0-2-0-----------------------|
A|--0--0-3-------3-0---------0-2-0-----| x2
E|--------------------0--0-3-------3-0-|

    A                 B(hold)   A(hold)
G|-------------------------------------|
D|---------0-2-0-----------------------|
A|--0--0-3-------3-0-2---------0-------|
E|-------------------------------------|



Post-chorus:

  E
G|-------------------------------------|
D|-------------------------------------|
A|-------0-2-0---------0-2-0-----x2----| 
E|--0--3-------3---0-3-------3---------|



Guitar solo:

  E
G|-------------------------------------|
D|-------------------------------------|
A|-------0-2-0---------0-2-0-----------| x4
E|--0--3-------3-0--0-3------3---------|



"Spy!" part:

G|-------|
D|-------|
A|--7----| x16  (End on an open E)
E|-------|



Random part:

G|-------------|
D|--/10--------|
A|-------------| Etc, just hit random notes 
E|-------4-6---| with the drums/horns

G|-------|
D|-------|
A|--7----| Strum repetedly, end.
E|-------|

-----------------------------------------------------------
Tabbed by:  Shaun Molthop

            
            
Suggest correction
Creating personal tab
Creating personal tab
You can edit any tab online and save it as your Personal.

You can edit, replace or remove any tab part or add personal notes – all changes will be seen only by you.

Personal tabs can be accessed anytime from any device, even offline.
Learn more »
Give kudos to tab author, rate the tab!
1 2 3 4 5
comments
print report bad tab
guest
You may want to rate the tab now too:
select rating
Wanna post a correction for this tab? Suggest correction