Oops, an error
Loading. Please wait.

Take Out The Trash bass

766 views 3 this week
no commentswrite comment
1 2 3 4 5
1 last vote to show rating
add to favorites
×
Save as Personal and add changes to this tab that will be seen only by you. Learn more ›
×
You can save this tab as Personal to edit and correct it or add notes. All changes will be seen only by you. Learn more »
launch autoscroll
font size
0
reset
guitar tuner
edit
Autoscroll
slow
fast
+/-
esc
set tempo
stop
Author
Difficulty
-------------------------------------------------------------------------------
	              TAKE OUT THE TRASH - They Might Be Giants
-------------------------------------------------------------------------------

Tabbed By : Stinvurger
e-mail:

Tuning: Standard


This is my first tab, sorry I couldn't figure out one of the sections

Intro:
G|-----------------------------------------------------|
D|---2---2-----------------------2---2-----------------|
A|-4---4---4-------4-2---4-----4---4-------4-2----4----|
E|-------------2-----------2-----------2------------2--|

Chorus:
G|-----------------------------------------|
D|-4--4-2--2-0--0--------------------------| Play twice
A|----------------4--4-2--2-2--2-4--4-4--4-|
E|-----------------------------------------|

Verse:
G|-----------------------------------------|
D|-----------------------------------------|
A|-------0---0-4------X6---4--4--4--4--4---|
E|-2---2---2-----(2)-----------------------|
                  ↑ Don't play this
                 note last time

Solo: (Same as verse but octave higher)
G|-------------6--------------------6-----------|
D|-------7---7----------------7---7-------------|
A|-9---9---9-----9------9---9---9-------9--9----|
E|----------------------------------------------|

                                    ↓Hold
G|-------------6--------------------6-----------|
D|-------7---7----------------7---7-------------|
A|-9---9---9-----9------9---9---9---------------|
E|----------------------------------------------|

Bridge:
G|-----------------7---7-7-------------------------7---7-7------|
D|-7---7-7-5---5-5---------7---7-7-7---7-7-5---5-5----------7---|
A|--------------------------------------------------------------|
E|--------------------------------------------------------------|

The next part has a really weird bass line to it
and i just can't figure it out. I hope you liked
the rest of it.

Order:
Intro
Chorus
Verse
Chorus
Solo
Verse
Chorus
Bridge
Weird Bass Part
Chorus x3


| /  slide up
| \  slide down
| h  hammer-on
| p  pull-off
| ~  vibrato
| +  harmonic
| x  Mute note
===============================================================================
Suggest correction
Creating personal tab
Creating personal tab
You can edit any tab online and save it as your Personal.

You can edit, replace or remove any tab part or add personal notes – all changes will be seen only by you.

Personal tabs can be accessed anytime from any device, even offline.
Learn more »
Give kudos to tab author, rate the tab!
1 2 3 4 5
comments
print report bad tab
guest
You may want to rate the tab now too:
select rating
Wanna post a correction for this tab? Suggest correction