Oops, an error
Loading. Please wait.

The Guitar bass

version 2
version 2

Whole song

950 views 1 this week
2 commentsread comments
1 2 3 4 5
2 more votes to show rating
add to favorites
×
Save as Personal and add changes to this tab that will be seen only by you. Learn more ›
×
You can save this tab as Personal to edit and correct it or add notes. All changes will be seen only by you. Learn more »
launch autoscroll
font size
0
reset
guitar tuner
edit
Autoscroll
slow
fast
+/-
esc
set tempo
stop
The Guitar (The Lion Sleeps Tonight)  - THEY MIGHT BE GIANTS

Tabbed by: Forest (thanks Jason The Great for a start)     
email: lostintheforest@yahoo.com

INTRO
G|----------------|
D|-3-3--3--3-3--3-|
A|----------------|
E|----------------|

G|--------------------------|
D|----2-4-2----0--0---------|
A|-0-0-------4------4-2-4-2-| (3 times)
E|--------------------------|


VERSE
G|--------------------------------|
D|------2-4-2------0-0--0---------|
A|-0-0-0---------4--------4-2-4-2-| (8 times) 
E|--------------------------------|


CHORUS (the "in the space ship..." part)
G|---|---|---|---|
D|---|-0-|---|---|
A|-0-|---|-0-|---| (twice)
E|---|---|---|-0-|

Verse (4 times)

Chorus

Verse (4 times) to crazy horn solo

After the guitar/drum break the bass comes back with:
G|--------------|
D|----2-4-2---0-|
A|-0-0------4---| 
E|--------------|

Verse (7 times)


STRANGE AUCTIONEER PART (I'm not absolutely sure on this part)
G|-------------------------------------|
D|-------------------------------------|
A|-------------------------------------| 
E|-0-0-0-0-12-12-12-12-0-0-0-0-0-0-0-0-|

Chorus

Verse (8 times)
Suggest correction
Creating personal tab
Creating personal tab
You can edit any tab online and save it as your Personal.

You can edit, replace or remove any tab part or add personal notes – all changes will be seen only by you.

Personal tabs can be accessed anytime from any device, even offline.
Learn more »
Give kudos to tab author, rate the tab!
1 2 3 4 5
comments
print report bad tab
2 comments total.
0 reply
HalfMoonBay98 71 May 01, 2013 11:19 AM

Pretty much all of this is good! I'm not so sure on the main riff, I tried playing along to The Guitar, something sounded off though. I'm not sure

guest
You may want to rate the tab now too:
select rating
Wanna post a correction for this tab? Suggest correction