Oops, an error
Loading. Please wait.

Bad Reputation bass

version 4
version 4

Whole song

Interactive

2,894 views 1 this week
1 commentread comment
1 2 3 4 5
1 last vote to show rating
add to favorites
×
Save as Personal and add changes to this tab that will be seen only by you. Learn more ›
×
You can save this tab as Personal to edit and correct it or add notes. All changes will be seen only by you. Learn more »
launch autoscroll
font size
0
reset
guitar tuner
backing track
0:00
0:00
edit
Autoscroll
slow
fast
+/-
esc
set tempo
stop
Thin Lizzy - Bad Reputation (1977)
Tabbed by: Jon Malmin (jogusmal@hotmail.com)
Tuning: Half-Step Down

Seems like no one has bothered to tab this in the right tuning... So it's
about time now. These parts are played in the order seen below, so just get 
your bass out and get rocking!

Verse one:
      S S S S S S E  E  S S S S S S    E  S S S S S S E  S S S S S S  4x
G||---------------------------------|---------------------------------||
D||*--------------5-----------------|--------------------------------*||
A||*--7-7-7-7-7-7----7--x-x-x-x-x-x-|--x--x-x-x-x-x-x-x--x-x-x-x-x-x-*||
E||---------------------------------|---------------------------------||


Chorus:         
    E  S S E  E  E  S S S S E     S S S S E  S S S S S S E  E  S S S S  4x
||-----------------------------|----------------------------------------||
||-----------------------------|---------------------------------------*||
||--------------------------7--|--x-x-x-x-5--x-x-x-x-x-x-3--2--x-x-x-x-*||
||--5--5-5-5--3--5--x-x-x-x----|----------------------------------------||


Verse two:
     E  S S S S E  E  S S S S E     E  S S S S E  S S E  S S E   4x 
||-------------------------------|-------------------------------||
||*-------------5----------------|-------------5----------------*||
||*--7--7-7-7-7----7--7-7-7-7-5--|--7--7-7-7-7----7-7-5------5--*||
||-------------------------------|-----------------------7-7-----||

Drum fill section (play this and then pause for one bar during the fills):
     S S S S E  E  Q          4x 
||----------------------------||
||*--------------------------*||
||*--7-7-7-7-7--5--7---------*||
||----------------------------||


Guitar harmony:
     E.  S E  E.  S S S E  E     E.  S E  E.  S S S E  E   
||----------------------------|---------------------------|
||*---------------------------|---------------------------|
||*--5---5-5------------------|--5---5-5------------------|
||------------7---7-7-7-5--7--|-----------7---7-7-7-7--5--|

  E.  S E  E.  S S S E  E     S S S S E  S S S S E  S S E   4x
---------------------------|--------------------------------||
---------------------------|----------5----------5------5--*||
--5---5-5------------------|-------------------------------*||
-----------7---7-7-7-5--5--|--3-3-3-3----3-3-3-3----3-3-----||


Solo (first part):
     S S S S E  E  E  S S S S E     S S S S E  S S S S S S E  E  S S S S  4x
||-------------------------------|----------------------------------------||
||*------------------------------|---------------------------------------*||
||*--7-7-7-7-7--5--7--x-x-x-x----|---------------------------------------*||
||----------------------------7--|--x-x-x-x-5--x-x-x-x-x-x-3--2--x-x-x-x--||


Solo (second part):
     E  S S S S E  E  S S S S E     E  S S S S E  S S E  S S E   4x 
||-------------------------------|-------------------------------||
||*-------------5----------------|-------------5----------------*||
||*--7--7-7-7-7----7--7-7-7-7-5--|--7--7-7-7-7----7-7-5------5--*||
||-------------------------------|-----------------------7-7-----||


Solo (fadeout, repeat this until the song is over):
     S S     S S S S       S S    S S      S S S S      S S  
||-----------------------------|-----------------------------||
||*----------------------------|----------------------------*||
||*--7-7--------5-7-7--------5-|--7-7--------5-7-7-5------5-*||
||-----------7-------------7---|-----------7------------7----||

Well, have fun guys!

S: Sixteenth note
E: Eight note
Q: Quarter note
E.: Puncuated note

            
            
Suggest correction
Creating personal tab
Creating personal tab
You can edit any tab online and save it as your Personal.

You can edit, replace or remove any tab part or add personal notes – all changes will be seen only by you.

Personal tabs can be accessed anytime from any device, even offline.
Learn more »
Give kudos to tab author, rate the tab!
1 2 3 4 5
comments
print report bad tab
1 comment total.
0 reply
wkellerman 10 May 07, 2015 09:06 PM

I liked it, its accurate.

guest
You may want to rate the tab now too:
select rating
Wanna post a correction for this tab? Suggest correction