Oops, an error
Loading. Please wait.

Chinatown bass

version 1
version 1

Whole song

Interactive

373 views 3 this week
no commentswrite comment
1 2 3 4 5
3 more votes to show rating
add to favorites
×
Save as Personal and add changes to this tab that will be seen only by you. Learn more ›
×
You can save this tab as Personal to edit and correct it or add notes. All changes will be seen only by you. Learn more »
launch autoscroll
font size
0
reset
guitar tuner
edit
Autoscroll
slow
fast
+/-
esc
set tempo
stop
Author
------------------------------------------------------------------------------
                          Chinatown - Thin Lizzy
------------------------------------------------------------------------------

Tabbed by: ChrisT

From the Album: Chinatown (1980)

Tuning: Standard

Intro (0:14)
G|-------------------------------------------------------------|
D|-------------------------------------------------------------|
A|---7-7-7--7-7-7--7-7-7--7-7-7--7-7-7--7-7-7--7-7-7--7-7-7----|
E|-------------------------------------------------------------|

G|---9-7---7-------------------------------------------------------------------|
D|-------9---9-7-9-7-5-7-5---5-------------------------------------------------|
A|-------------------------7---7-5-7-5---5-------------------------------------|
E|-------------------------------------7---7-5-7-5-3-0-------------------------|

G|-------------------------------------------------------|
D|----------------------------2--------------------------|
A|------------------------------------0-2-0-2-3-2-3-5----|
E|---0~-------------------------0-2-3--------------------|

Verse
G|--------------------------------------------------------------------------------|
D|--------------------------------------------------------------------------------|
A|--------------------------------------------------------------------------------|
E|--0--0-0--0-0--0-0--0-0--0-0--0-0--0-0--0-0--0-0--0-0--0-0--0-0--0-0--0-0--0-0--|

G|-------------------------------------------------------------------------------|
D|-------------------------------------------------------------------------------|
A|--2--2-2--2-2--2-2--2-2--2-2--2-2--2-2-----------------------------------------|
E|----------------------------------------0--0-0--0-0--0-0--0-0--0-0--0-0--0-0---|

G|-------------------------------------------------------------------------------|
D|-------------------------------------------------------------------------------|
A|-------------------------------------------------------------------------------|
E|--5--5-5--5-5--5-5--5-5--5-5--5-5--5-5--0--0-0--0-0--0-0--0-0--0-0--0-0--0-0---|

Chorus
G|-------------------------------------------------------------------------------|
D|-------------------------------------------------------------------------------|
A|--2--2-2--2-2--2-2--0---0-0---3---3-3------------------------------------------|
E|----------------------------------------0--0-0--0-0--0-0--0-0--0-0--0-0--0-0---|

G|-------------------------------------------------------------------------------|
D|-------------------------------------------------------------------------------|
A|--2--2-2--2-2--2-2--0---0-0---3---3-3------------------------------------------|
E|----------------------------------------0--0-0--0-0--0-0--0-0--0-0--0-0--0-0---|

Verse
G|--------------------------------------------------------------------------------|
D|--------------------------------------------------------------------------------|
A|--------------------------------------------------------------------------------|
E|--0--0-0--0-0--0-0--0-0--0-0--0-0--0-0--0-0--0-0--0-0--0-0--0-0--0-0--0-0--0-0--|

G|-------------------------------------------------------------------------------|
D|-------------------------------------------------------------------------------|
A|--2--2-2--2-2--2-2--2-2--2-2--2-2--2-2-----------------------------------------|
E|----------------------------------------0--0-0--0-0--0-0--0-0--0-0--0-0--0-0---|

G|-------------------------------------------------------------------------------|
D|-------------------------------------------------------------------------------|
A|-------------------------------------------------------------------------------|
E|--5--5-5--5-5--5-5--5-5--5-5--5-5--5-5--0--0-0--0-0--0-0--0-0--0-0--0-0--0-0---|

Chorus
G|-------------------------------------------------------------------------------|
D|-------------------------------------------------------------------------------|
A|--2--2-2--2-2--2-2--0---0-0---3---3-3------------------------------------------|
E|----------------------------------------0--0-0--0-0--0-0--0-0--0-0--0-0--0-0---|

G|-------------------------------------------------------------------------------|
D|-------------------------------------------------------------------------------|
A|--2--2-2--2-2--2-2--0---0-0---3---3-3------------------------------------------|
E|----------------------------------------0--0-0--0-0--0-0--0-0--0-0--0-0--0-0---|

Bridge
G|-----------------------------|
D|--2-----------2--------------|
A|----------0-2---------0-2----|
E|----0-2-3-------0-2-3--------|

G|---------------------------------------------------------------------|
D|---------------------------------------------------------------------|
A|----------------------------------2--2-2--2-2--2-2--2-2--2-2---------|
E|--3--3-3--3-3--3-3--3-3--3-3--3-2-----------------------------3-2----|

G|---------------------------------------------------------------------|
D|---------------------------------------------------------------------|
A|---------------------------------------------------------------------|
E|--0--0-0--0-0--0-0--0-0--0-0--0-2-3--3-3--3-3--3-3--3-3--3-3--3-2----|

G|---------------------------------------------------------------------|
D|---------------------------------------------------------------------|
A|--2--2-2--2-2--2-2--2-2--2-2--2-3-5--5-5--5-5--5-5--5-5--5-5--5-7----|
E|---------------------------------------------------------------------|

G|---------------------------------------------------------------------|
D|---------------------------------------------------------------------|
A|----------------------------------2--2-2--2-2--2-2--3------5---------|
E|--3--3-3--3-3--3-3--3-3--3-3--3-2------------------------------------|

G|---9-7---7-------------------------------------------------------------------|
D|-------9---9-7-9-7-5-7-5---5-------------------------------------------------|
A|-------------------------7---7-5-7-5---5-------------------------------------|
E|-------------------------------------7---7-5-7-5-3-0~------------------------|

Guitar Solo
G|---------------------------------------------------------------------------|
D|o--------------------------------------------------------------------------|
A|o---7--7-7-7-7-7--7-7-7-7-7--7-7-7-7-7--7-7-7-7-7--7-7-7-7-7--7-7-7-7-7----|
E|---------------------------------------------------------------------------|

                     Repeat x4
G|----------------------------|
D|---------------------------o|
A|---7-7-7-7-7--7-7-7-7-7----o|
E|----------------------------|

G|-------------------------------------------------------------------------|
D|o------------------------------------------------------------------------|
A|o---3-3-3-3-3--2-2-2-2-2--3-3-3-3-3--5-5-5-5-5--7-7-7-7-7--7-7-7-7-7-----|
E|-------------------------------------------------------------------------|

                     Repeat x3
G|----------------------------|
D|---------------------------o|
A|---7-7-7-7-7--7-7-7-7-7----o|
E|----------------------------|

G|------------------------------------------------------------------------|
D|------------------------------------------------------------------------|
A|---3-3-3-3-3--2-2-2-2-2--3-3-3-3-3--5-5-5-5-5--7\-----------------------|
E|------------------------------------------------------------------------|

                   
Verse
G|--------------------------------------------------------------------------------|
D|--------------------------------------------------------------------------------|
A|--------------------------------------------------------------------------------|
E|--0--0-0--0-0--0-0--0-0--0-0--0-0--0-0--0-0--0-0--0-0--0-0--0-0--0-0--0-0--0-0--|

G|-------------------------------------------------------------------------------|
D|-------------------------------------------------------------------------------|
A|--2--2-2--2-2--2-2--2-2--2-2--2-2--2-2-----------------------------------------|
E|----------------------------------------0--0-0--0-0--0-0--0-0--0-0--0-0--0-0---|

G|-------------------------------------------------------------------------------|
D|-------------------------------------------------------------------------------|
A|-------------------------------------------------------------------------------|
E|--5--5-5--5-5--5-5--5-5--5-5--5-5--5-5--0--0-0--0-0--0-0--0-0--0-0--0-0--0-0---|

Chorus
G|-------------------------------------------------------------------------------|
D|-------------------------------------------------------------------------------|
A|--2--2-2--2-2--2-2--0---0-0---3---3-3------------------------------------------|
E|----------------------------------------0--0-0--0-0--0-0--0-0--0-0--0-0--0-0---|

G|-------------------------------------------------------------------------------|
D|-------------------------------------------------------------------------------|
A|--2--2-2--2-2--2-2--0---0-0---3---3-3------------------------------------------|
E|----------------------------------------0--0-0--0-0--0-0--0-0--0-0--0-0--0-0---|

G|------------------------------|
D|---2--------------------------|
A|-----------0-2-0-2-3-2-3-5----|
E|-----0-2-3--------------------|

Guitar Solo
G|-------------------------------------------------------------------------------|
D|-------------------------------------------------------------------------------|
A|-------------------------------------------------------------------------------|
E|--5--5-5--5-5--5-5--5-5--5-5--5-5--5-5--3--5-5--5-5--5-5--5-5--5-5--5-5--5-5---|

G|-------------------------------------------------------------------------------|
D|-------------------------------------------------------------------------------|
A|-------------------------------------------------------------------------------|
E|--0--0-0--0-0--0-0--0-0--0-0--0-0--0-0--0--0-0--0-0--0-0--0-0--0-0--0-0--0-0---|

G|-------------------------------------------------------------------------------|
D|-------------------------------------------------------------------------------|
A|-------------------------------------------------------------------------------|
E|--5--5-5--5-5--5-5--5-5--5-5--5-5--5-5--3--5-5--5-5--5-5--5-5--5-5--5-5--5-5---|

G|--------------------------------------------------|
D|o-------------------------------------------------|
A|o---3-3-3-3-3--2-2-2-2-2--3-3-3-3-3--5-5-5-5-5----|
E|--------------------------------------------------|

                                    Repeat x5
G|-------------------------------------------|
D|------------------------------------------o|
A|------------------------------------------o|
E|---0--0-0--0-0--0-0--0-0--0-0--0-0--0-0----|

                                           Repeat x3
G|--------------------------------------------------|
D|o------------------------------------------------o|
A|o---3-3-3-3-3--2-2-2-2-2--0-0-0-0-0--2-2-2-2-2---o|
E|--------------------------------------------------|



G|---9-7---7----------------------------------------------|
D|-------9---9-7-9-7-5-7-5---5----------------------------|
A|-------------------------7---7-5-7-5---5----------------|
E|-------------------------------------7---7-5-7-5-3-0----|



            
            
Suggest correction
Creating personal tab
Creating personal tab
You can edit any tab online and save it as your Personal.

You can edit, replace or remove any tab part or add personal notes – all changes will be seen only by you.

Personal tabs can be accessed anytime from any device, even offline.
Learn more »
Give kudos to tab author, rate the tab!
1 2 3 4 5
comments
print report bad tab
guest
You may want to rate the tab now too:
select rating
Wanna post a correction for this tab? Suggest correction