Oops, an error
Loading. Please wait.

Chinatown tab

version 3
version 3

Whole song

Interactive

327 views 1 this week
no commentswrite comment
1 2 3 4 5
3 more votes to show rating
add to favorites
×
Save as Personal and add changes to this tab that will be seen only by you. Learn more ›
×
You can save this tab as Personal to edit and correct it or add notes. All changes will be seen only by you. Learn more »
launch autoscroll
font size
0
reset
how to read this tab
guitar tuner
edit
Autoscroll
slow
fast
+/-
esc
set tempo
stop
Author
Difficulty
CHINATOWN
As recorded by Thin Lizzy
(From the 1980 Album CHINATOWN)

Words and Music by Brian Downey, Scott Gorham,  Phil Lynott &  Snowy White

Transcribed by Slowhand


Gtr I (E A D G B E) - 'Scott Gorham - Electric Guitar'
Gtr II (E A D G B E) - 'Snowy White - Electric Guitar'
Gtr III (E A D G B E) - 'Scott Gorham - Electric Guitar'


   Intro
    Shuffle Q=146(8=s8)
    N.C.
   4/4
    Gtr II
        |-3-|       |-3-|      |--3--|  |--3--|  |--3--|  |-3--|
    E E E E E +E  E E E E 12x  E  E  E  E  E  E  E  E  E  E  E E
||-------------------------||-12p10----10------------------------|
||o-----------------------o||-------12----12p10-12p10----10------|
||-------------------------||-------------------------12----12p9-|
||----------0-(0)-0-----2--||------------------------------------|
||o-----0h2---------0h2---o||------------------------------------|
||--0-0--------------------||------------------------------------|
|
|   Gtr I
|       |-3-|       |-3-|      |--3--|  |--3--|  |--3--|  |-3--|
|   E E E E E +E  E E E E 12x  E  E  E  E  E  E  E  E  E  E  E E
||-------------------------||------------------------------------|
||o-----------------------o||--5p=3-----3------------------------|
||-------------------------||--------4-----4p=2--4p=2-----2------|
||----------0-(0)-0-----2--||--------------------------5-----5p2-|
||o-----0h2---------0h2---o||------------------------------------|
||--0-0--------------------||------------------------------------|


   |-3--| |-3--|  |-3--| |--3--|
   E E  E E  E E  E E  E E  E  E
|--------------------------------|
|--------------------------------|
|-12p9----9----------------------|
|------12---12p9-12p9----9-------|
|---------------------12---10-12-|
|--------------------------------|
|
|  |-3--| |-3--|  |-3--| |--3--|
|  E E  E E  E E  E E  E E  E  E
|--------------------------------|
|--------------------------------|
|--------------------------------|
|--5p2----2----------------------|
|-------5----5p2--5p2----2-------|
|----------------------5----5--3-|


                        ~~~~~~~~~~~~
   |--3--|  |--3--|
   E  E  E  E  E  E  E  E      +Q
|-15p12----12------------------------|
|-------15----15p12-15-15b17==(15)r--|
|------------------------------------|
|------------------------------------|
|------------------------------------|
|------------------------------------|


                                   E5
  Gtrs I, II
   |--3--|  |--3--|
   E  E  E  E  E  E  E  E  +E  E   W          +H     H
|--------------------------------|----------|--------------|
|-15p12----12--------------------|----------|--------------|
|-------14----14p12----12-(12)---|----------|--------------|
|--------------------------------|-2--------|-(2)----x/----|
|-------------------14-----------|-2--------|-(2)----x/----|
|--------------------------------|-0--------|-(0)----------|


                              1st Verse
  N.C.                         E5
  Gtr II
  |-3-| |-3-|   |-3-| |-3-|    |--3--| |-3-|       |-3-|
  Q Q Q Q Q Q   Q Q Q Q Q Q    E E   E E E E +E  E E E E
|-------------|-------------||---------------------------|
|-------------|-------------||---------------------------|
|-------------|-------------||---------------------------|
|-2-----------|-----------0-||-------------0-(0)-0-----2-|
|---------0-2-|-0-2-3-2-3---||---------0h2---------0h2---|
|---0-2-3-----|-------------||-0-0---0-------------------|
|
| Gtr I
| |-3-| |-3-|   |-3-| |-3-|            |-3-|       |-3-|
| Q Q Q Q Q Q   Q Q Q Q Q Q    E   E   E E E +E  E E E E
|-------------|-------------||---------------------------|
|-------------|-------------||---------------------------|
|-------------|-------------||---------------------------|
|-2-----------|-----------0-||-------------0-(0)-0-----2-|
|---------0-2-|-0-2-3-2-3---||---------0h2---------0h2---|
|---0-2-3-----|-------------||-0---0---------------------|


  |--3--| |-3-|       |-3-|
  E E   E E E E +E  E E E E
|-----------------------------|
|-----------------------------|
|-----------------------------|
|-------------0-(0)-0-----2---|
|---------0h2---------0h2-----|
|-0-0---0---------------------|
|
|         |-3-|       |-3-|
| E   E   E E E +E  E E E E
|-----------------------------|
|-----------------------------|
|-----------------------------|
|-------------0-(0)-0-----2---|
|---------0h2---------0h2-----|
|-0---0-----------------------|


  |--3--| |-3-|       |-3-|
  E E   E E E E +E  E E E E
|---------------------------|
|---------------------------|
|---------------------------|
|-------------0-(0)-0-----2-|
|---------0h2---------0h2---|
|-0-0---0-------------------|
|
|         |-3-|       |-3-|
| E   E   E E E +E  E E E E
|---------------------------|
|---------------------------|
|---------------------------|
|-------------0-(0)-0-----2-|
|---------0h2---------0h2---|
|-0---0---------------------|


                              B5
  |--3--| |-3-|       |-3-|                     |-3-|
  E E   E E E E +E  E E E E   E E E   E    E  E E E E
|---------------------------|--------------------------|
|---------------------------|--------------------------|
|---------------------------|---4----------4----x-x-x--|
|-------------0-(0)-0-----2-|--------------------------|
|---------0h2---------0h2---|-2-------2-------2--------|
|-0-0---0-------------------|--------------------------|
|
|         |-3-|       |-3-|       |--3--|       |-3-|
| E   E   E E E +E  E E E E   E E E E   E +E  E E E E
|---------------------------|--------------------------|
|---------------------------|--------------------------|
|---------------------------|--------------------------|
|-------------0-(0)-0-----2-|-----------0-(0)-0-----2--|
|---------0h2---------0h2---|-2-2-0h2-----------0h2----|
|-0---0---------------------|--------------------------|


      |-3-|  |--3---|
  E E E E E  E  E   E Q
|------------7--------7\----|
|-7----------7--x---7-7\----|
|-4-4-x-x-x--4------4-4\----|
|---------------------------|
|---------------------------|
|---------------------------|
|
|     |-3-|           |-3-|
| E E E E E +E    E   E E E
|---------------------------|
|---------------------------|
|---------------------------|
|---------0-(0)---0-------2-|
|-2-2-0h2-------------0h2---|
|---------------------------|


  E5
  |--3--| |-3-|       |-3-|   |--3--| |-3-|       |-3-|
  E E   E E E E +E  E E E E   E E   E E E E +E  E E E E
|---------------------------|---------------------------|
|---------------------------|---------------------------|
|---------------------------|---------------------------|
|-------------0-(0)-0-----2-|-------------0-(0)-0-----2-|
|---------0h2---------0h2---|---------0h2---------0h2---|
|-0-0---0-------------------|-0-0---0-------------------|
|
|         |-3-|       |-3-|           |-3-|       |-3-|
| E   E   E E E +E  E E E E   E   E   E E E +E  E E E E
|---------------------------|---------------------------|
|---------------------------|---------------------------|
|---------------------------|---------------------------|
|-------------0-(0)-0-----2-|-------------0-(0)-0-----2-|
|---------0h2---------0h2---|---------0h2---------0h2---|
|-0---0---------------------|-0---0---------------------|


  A5
  H.               E   E     +Q    Q     +E  E +Q
|--------------------------|-------5-----(5)-3-(3)----|
|----------------------3---|-(3)----------------------|
|-2--------------------0---|-(0)----------------------|
|-2--------------------5---|-(5)----------------------|
|-0----------------0-------|--------------------------|
|--------------------------|--------------------------|
|
|      |-3-|       |--3--|         |-3-|        |-3-|
| E  E E E E +E  E E E   E    E  E E E E +E  E  E E E
|--------------------------|--------------------------|
|--------------------------|--------------------------|
|----------0-(0)-0-------2-|-----------0-(0)-0------2-|
|------0h2---------0h2-----|-------0h2----------0h2---|
|-0--0---------------------|--0--0--------------------|
|--------------------------|--------------------------|


  E5
  |--3--| |-3-|       |-3-|
  E E   E E E E +E  E E E E
|----------------------------|
|----------------------------|
|----------------------------|
|-------------0-(0)-0-----2--|
|---------0h2---------0h2----|
|-0-0---0--------------------|
|
|         |-3-|       |-3-|
| E   E   E E E +E  E E E E
|----------------------------|
|----------------------------|
|----------------------------|
|-------------0-(0)-0-----2--|
|---------0h2---------0h2----|
|-0---0----------------------|


                                B5                                A5    C5
  |--3--| |-3-|       |-3-|     |--3--|
  E E   E E E E +E  E E E E     E E   E E   E   +E  E E   +E      Q  Q  Q  Q
|---------------------------||----------7---7---(7)-7-7---(7)---|-------------|
|---------------------------||o---------7---7---(7)-7-7---(7)---|-------------|
|---------------------------||----------7---7---(7)-7-7---(7)---|-2--2--5--5--|
|-------------0-(0)-0-----2-||----------------------------------|-2--2--5--5--|
|---------0h2---------0h2---||o---------------------------------|-0--0--3--3--|
|-0-0---0-------------------||--7-7---7-------------------------|-------------|
|
|         |-3-|       |-3-|             |--3--|       |---3---|
| E   E   E E E +E  E E E E     E   E   E E   E +E  E E E     E   Q  Q  Q  Q
|---------------------------||----------------------------------|-------------|
|---------------------------||o---------------------------------|-------------|
|---------------------------||----------------------------------|-2--2--5--5--|
|-------------0-(0)-0-----2-||----------------0-(0)-0---------2-|-2--2--5--5--|
|---------0h2---------0h2---||o-2---2---0h2-----------0h2-------|-0-----3-----|
|-0---0---------------------||----------------------------------|-------------|


  E5
  |--3--| |-3-|       |-3-|
  E E   E E E E +E  E E E E
|---------------------------|
|---------------------------|
|---------------------------|
|-------------0-(0)-0-----2-|
|---------0h2---------0h2---|
|-0-0---0-------------------|
|
|         |-3-|       |-3-|
| E   E   E E E +E  E E E E
|---------------------------|
|---------------------------|
|---------------------------|
|-------------0-(0)-0-----2-|
|---------0h2---------0h2---|
|-0---0---------------------|


                               2nd Verse
  |--3--| |-3-|       |-3-|     |--3--| |-3-|       |-3-|
  E E   E E E E +E  E E E E     E E   E E E E +E  E E E E
|----------------------------||---------------------------|
|---------------------------o||---------------------------|
|----------------------------||---------------------------|
|-------------0-(0)-0-----2--||-------------0-(0)-0-----2-|
|---------0h2---------0h2---o||---------0h2---------0h2---|
|-0-0---0--------------------||-0-0---0-------------------|
|
|         |-3-|       |-3-|             |-3-|       |-3-|
| E   E   E E E +E  E E E E     E   E   E E E +E  E E E E
|----------------------------||---------------------------|
|---------------------------o||---------------------------|
|----------------------------||---------------------------|
|-------------0-(0)-0-----2--||-------------0-(0)-0-----2-|
|---------0h2---------0h2---o||---------0h2---------0h2---|
|-0---0----------------------||-0---0---------------------|


  |--3--| |-3-|       |-3-|
  E E   E E E E +E  E E E E
|---------------------------|
|---------------------------|
|---------------------------|
|-------------0-(0)-0-----2-|
|---------0h2---------0h2---|
|-0-0---0-------------------|
|
|         |-3-|       |-3-|
| E   E   E E E +E  E E E E
|---------------------------|
|---------------------------|
|---------------------------|
|-------------0-(0)-0-----2-|
|---------0h2---------0h2---|
|-0---0---------------------|


  |--3--| |-3-|       |-3-|   |--3--| |-3-|       |-3-|
  E E   E E E E +E  E E E E   E E   E E E E +E  E E E E
|---------------------------|---------------------------|
|---------------------------|---------------------------|
|---------------------------|---------------------------|
|-------------0-(0)-0-----2-|-------------0-(0)-0-----2-|
|---------0h2---------0h2---|---------0h2---------0h2---|
|-0-0---0-------------------|-0-0---0-------------------|
|
|         |-3-|       |-3-|           |-3-|       |-3-|
| E   E   E E E +E  E E E E   E   E   E E E +E  E E E E
|---------------------------|---------------------------|
|---------------------------|---------------------------|
|---------------------------|---------------------------|
|-------------0-(0)-0-----2-|-------------0-(0)-0-----2-|
|---------0h2---------0h2---|---------0h2---------0h2---|
|-0---0---------------------|-0---0---------------------|


  B5
      |-3-|           |-3-|
  E E E E E  S  S S S E E E
|---------------------------|
|------------7--------------|
|------------7----7---x-x-x-|
|-9-9-x-x-x-----------------|
|---------------------------|
|---------------------------|
|
|     |-3-|           |-3-|
| E E E E E +E    E   E E E
|---------------------------|
|---------------------------|
|---------------------------|
|---------0-(0)---0-------2-|
|-2-2-0h2-------------0h2---|
|---------------------------|


                           E5
      |-3-|       |-3--|   |--3--| |-3-|       |-3-|
  E E E E E  E  E E E  E   E E   E E E E +E  E E E E
|-7----------7----7-7\---|---------------------------|
|-7-7--------7----7-7\---|---------------------------|
|-----x-x-x--7----7-7\---|---------------------------|
|------------------------|-------------0-(0)-0-----2-|
|------------------------|---------0h2---------0h2---|
|------------------------|-0-0---0-------------------|
|
|     |-3-|       |-3--|           |-3-|       |-3-|
| E E E E E +E  E E E  E   E   E   E E E +E  E E E E
|------------------------|---------------------------|
|------------------------|---------------------------|
|------------------------|---------------------------|
|---------0-(0)-0------2-|-------------0-(0)-0-----2-|
|-2-2-0h2---------0h2----|---------0h2---------0h2---|
|------------------------|-0---0---------------------|


  |--3--| |-3-|       |-3-|
  E E   E E E E +E  E E E E
|---------------------------|
|---------------------------|
|---------------------------|
|-------------0-(0)-0-----2-|
|---------0h2---------0h2---|
|-0-0---0-------------------|
|
|         |-3-|       |-3-|
| E   E   E E E +E  E E E E
|---------------------------|
|---------------------------|
|---------------------------|
|-------------0-(0)-0-----2-|
|---------0h2---------0h2---|
|-0---0---------------------|


  A5
  H.               E   E     +Q    Q     +E  E +Q
|--------------------------|-------5-----(5)-3-(3)-----|
|----------------------3---|-(3)-----------------------|
|-2--------------------0---|-(0)-----------------------|
|-2--------------------5---|-(5)-----------------------|
|-0----------------0-------|---------------------------|
|--------------------------|---------------------------|
|
|      |-3-|       |--3--|         |-3-|        |-3-|
| E  E E E E +E  E E E   E    E  E E E E +E  E  E E E
|--------------------------|---------------------------|
|--------------------------|---------------------------|
|----------0-(0)-0-------2-|-----------0-(0)-0------2--|
|------0h2---------0h2-----|-------0h2----------0h2----|
|-0--0---------------------|--0--0---------------------|
|--------------------------|---------------------------|


  E5
  |--3--| |-3-|       |-3-|   |--3--| |-3-|       |-3-|
  E E   E E E E +E  E E E E   E E   E E E E +E  E E E E
|---------------------------|---------------------------|
|---------------------------|---------------------------|
|---------------------------|---------------------------|
|-------------0-(0)-0-----2-|-------------0-(0)-0-----2-|
|---------0h2---------0h2---|---------0h2---------0h2---|
|-0-0---0-------------------|-0-0---0-------------------|
|
|         |-3-|       |-3-|           |-3-|       |-3-|
| E   E   E E E +E  E E E E   E   E   E E E +E  E E E E
|---------------------------|---------------------------|
|---------------------------|---------------------------|
|---------------------------|---------------------------|
|-------------0-(0)-0-----2-|-------------0-(0)-0-----2-|
|---------0h2---------0h2---|---------0h2---------0h2---|
|-0---0---------------------|-0---0---------------------|


    B5
    |--3--|
    E E   E E   E   +E  E E   +E
||----------7---7---(7)-7-7---(7)----|
||o---------7---7---(7)-7-7---(7)----|
||----------7---7---(7)-7-7---(7)----|
||-----------------------------------|
||o----------------------------------|
||--7-7---7--------------------------|
|
|           |--3--|       |---3---|
|   E   E   E E   E +E  E E E     E
||-----------------------------------|
||o----------------------------------|
||-----------------------------------|
||----------------0-(0)-0---------2--|
||o-2---2---0h2-----------0h2--------|
||-----------------------------------|


  A5    C5      E5
                |--3--| |-3-|       |-3-|
  Q  Q  Q  Q    E E   E E E E +E  E E E E
|-------------|---------------------------|
|-------------|---------------------------|
|-2--2--5--5--|---------------------------|
|-2--2--5--5--|-------------0-(0)-0-----2-|
|-0--0--3--3--|---------0h2---------0h2---|
|-------------|-0-0---0-------------------|
|
|                       |-3-|       |-3-|
| Q  Q  Q  Q    E   E   E E E +E  E E E E
|-------------|---------------------------|
|-------------|---------------------------|
|-2--2--5--5--|---------------------------|
|-2--2--5--5--|-------------0-(0)-0-----2-|
|-0-----3-----|---------0h2---------0h2---|
|-------------|-0---0---------------------|


                                N.C.
  |--3--| |-3-|       |-3-|     |-3-| |-3-|
  E E   E E E E +E  E E E E     Q Q Q Q Q Q
|----------------------------||-------------|
|---------------------------o||-------------|
|----------------------------||-------------|
|-------------0-(0)-0-----2--||-2-----------|
|---------0h2---------0h2---o||---------0-2-|
|-0-0---0--------------------||---0-2-3-----|
|
|         |-3-|       |-3-|     |-3-| |-3-|
| E   E   E E E +E  E E E E     Q Q Q Q Q Q
|----------------------------||-------------|
|---------------------------o||-------------|
|----------------------------||-------------|
|-------------0-(0)-0-----2--||-2-----------|
|---------0h2---------0h2---o||---------0-2-|
|-0---0----------------------||---0-2-3-----|


                Bridge
                 G5                          B5
  Gtrs I, II
  |-3-| |-3-|                       |-3--|
  Q Q Q Q Q Q    W          +H     +Q  Q Q   W
|-------------||----------|----------------|------|
|-------------||----------|----------------|------|
|-------------||----------|----------------|-4----|
|-2-----------||-5--------|-(5)----(5)-5---|-4----|
|---------0-2-||-5--------|-(5)----(5)-5---|-2----|
|---0-2-3-----||-3--------|-(3)----(3)-3-2-|------|


             G5F#5 E5                          G5
          |-3--|                      |-3--|
  +H     +Q  Q Q   W          +H     +Q  Q Q   W
|----------------|----------|----------------|------|
|----------------|----------|----------------|-3----|
|-(4)----(4)-----|----------|----------------|-0----|
|-(4)----(4)-5-4-|-2--------|-(2)----(2)-----|-0----|
|-(2)----(2)-5-4-|-2--------|-(2)----(2)-----|------|
|------------3-2-|-0--------|-(0)----(0)-0-2-|-3----|


                   B5                      C5  D5
          |-3--|                      |-3--|
  +H     +Q  Q Q   W          +H     +Q  Q Q   W
|----------------|----------|----------------|------|
|-(3)----(3)-----|----------|----------------|------|
|-(0)----(0)-----|-4--------|-(4)----(4)-4-5-|-7----|
|-(0)----(0)-----|-4--------|-(4)----(4)-4-5-|-7----|
|----------------|-2--------|-(2)----(2)-2-3-|-5----|
|-(3)----(3)-3-2-|----------|----------------|------|


                                                 B5
  Gtr II
                     ~~~~~~~~~~~~~~~~~~~~~~
          |--3---|                      |-3--|
  +H     +Q  +Q  Q   W          +H     +Q  Q Q   W
|------------------|----------|----------------|------|
|------------------|----------|----------------|------|
|-(7)----(7)-(7)---|-4--------|-(4)----(4)-----|-4----|
|-(7)----(7)-(7)-7-|----------|------------4-2-|-4----|
|-(5)----(5)-(5)---|----------|----------------|-2----|
|------------------|----------|----------------|------|
|
| Gtr I
|         |--3---|                      |-3--|
| +H     +Q   Q  Q   W          +H     +Q  Q Q   W
|------------------|----------|----------------|------|
|------------------|----------|----------------|------|
|-(7)----(7)--7----|----------|----------------|-4----|
|-(7)----(7)--7----|----------|--------------4-|-4----|
|-(5)----(5)--5--7-|-7--------|-(7)----(7)-7---|-2----|
|------------------|----------|----------------|------|


  C5   D5        N.C.
                  |--3--|  |--3--|  |--3--|  |-3--|
  H    Q.    E    E  E  E  E  E  E  E  E  E  E  E E
|-----------12-|-12p10----10------------------------|
|--------------|-------12----12p10-12p10----10------|
|-5----7-------|-------------------------12----12p9-|
|-5----7-------|------------------------------------|
|-3----5-------|------------------------------------|
|--------------|------------------------------------|
|
|                 |--3--|  |--3--|  |--3--|  |-3--|
| H    Q.    E    E  E  E  E  E  E  E  E  E  E  E E
|--------------|------------------------------------|
|------------5-|--5p=3-----3------------------------|
|-5----7-------|--------4-----4p=2--4p=2-----2------|
|-5----7-------|--------------------------5-----5p2-|
|-3----5-------|------------------------------------|
|--------------|------------------------------------|


   |-3--| |-3--|  |-3--| |--3--|
   E E  E E  E E  E E  E E  E  E
|--------------------------------|
|--------------------------------|
|-12p9----9----------------------|
|------12---12p9-12p9----9-------|
|---------------------12---10-12-|
|--------------------------------|
|
|  |-3--| |-3--|  |-3--| |--3--|
|  E E  E E  E E  E E  E E  E  E
|--------------------------------|
|--------------------------------|
|--------------------------------|
|--5p2----2----------------------|
|-------5----5p2--5p2----2-------|
|----------------------5----5--3-|


                                       Guitar Solo 1
  E5                                    E5
                                            |-3-|
  W          +W           +W            E E E E E +H
|-0--------|-(0)--------|-(0)--------||------------------|
|-0--------|-(0)--------|-(0)--------||------------------|
|-4--------|-(4)--------|-(4)--------||------------------|
|-2--------|-(2)--------|-(2)--------||---------0-(0)----|
|-2--------|-(2)--------|-(2)--------||-----0h2----------|
|-0--------|-(0)--------|-(0)--------||-0-0--------------|
|
| W          +W           +W            W
|----------|------------|------------||------------------|
|----------|------------|------------||------------------|
|----------|------------|------------||------------------|
|-2--------|-(2)--------|-(2)--------||------------------|
|-2--------|-(2)--------|-(2)--------||------------------|
|-0--------|-(0)--------|-(0)--------||------------------|


  +W           +W
|------------|--------------------------------------|
|------------|--------------------------------------|
|------------|--------------------------------------|
|-(0)--------|-(0)----------------------------------|
|------------|--------------------------------------|
|------------|--------------------------------------|
|
|                                            ~~~~~~~~
|                                |---3----|
|  W            E   E  E  E     +E   +E   E  Q
|------------|--------------------------------------|
|------------|--------------------------------------|
|------------|--------12-14b16r(14)-(14)-12-14b16===|
|------------|-----14-------------------------------|
|------------|--------------------------------------|
|------------|--------------------------------------|


                2/4
   +W            +H
|--------------|--------------------------|
|--------------|--------------------------|
|--------------|--------------------------|
|--(0)---------|-(0)----------------------|
|--------------|--------------------------|
|--------------|--------------------------|
|
|~~~~~~~
|                 |--3--|  |--3--|
|  +W             S  S  S  S  S  S  +Q
|--------------|--------------------------|
|--------------|--------------------------|
|-(14)r--------|-14p12----12--------------|
|--------------|-------14----14p12-(12)---|
|--------------|--------------------------|
|--------------|--------------------------|


 4/4
      |-3-|
  E E E E E +H       +W                            +W
|------------------|-----------------------------|-----------------|
|------------------|-----------------------------|-----------------|
|------------------|-----------------------------|-----------------|
|---------0-(0)----|-(0)-------------------------|-(0)-------------|
|-----0h2----------|-----------------------------|-----------------|
|-0-0--------------|-----------------------------|-----------------|
|
|                                         ~~~~~~~~~~~~~~
|                                                            |-3-|
| W                   E  X T. +S  E E E E Q        +H.       E E E
|------------------|----------------7------------|-----------------|
|------------------|-----------------------------|-----------7-----|
|------------------|--------------7---7---9b11===|=(9)r--------9-7-|
|------------------|-----7s9--(9)-------9--------|-----------------|
|------------------|-----------------------------|-----------------|
|------------------|-----------------------------|-----------------|


                          2/4        4/4
                                          |-3-|
  +W                       +H         E E E E E +H
|------------------------|----------|------------------------------------------|
|------------------------|----------|------------------------------------------|
|------------------------|----------|------------------------------------------|
|-(0)--------------------|-(0)------|---------0-(0)----------------------------|
|------------------------|----------|-----0h2----------------------------------|
|------------------------|----------|-0-0--------------------------------------|
|
|  |-3-|    |--3--|
|  S S S E +E  E  E H      +E  E Q    H          E   E  S  +X   S  +X   T. T.
|------------------------|----------|--------------------------12-(12)-15p12---|
|------------------------|----------|---------------12h15-(15)-----------------|
|--9p7---9-(9)-7\--------|----------|------------------------------------------|
|------9----------7-5----|-(5)------|------------------------------------------|
|------------------------|----------|------------------------------------------|
|------------------------|----------|------------------------------------------|


  +W
|-----------------------------------|
|-----------------------------------|
|-----------------------------------|
|-(0)-------------------------------|
|-----------------------------------|
|-----------------------------------|
|
|                           ~~~~~~~~~
|  |--3---|  |--3--|  |--3--|
|  E   E  E  E  E  E  E  E  E  +Q
|-----12----------12----------------|
|-15-----15-12h15----15p12h15-(15)--|
|-----------------------------------|
|-----------------------------------|
|-----------------------------------|
|-----------------------------------|


                                                 2/4
   +W                                +W            +H
|----------------------------------|------------|---------|
|----------------------------------|------------|---------|
|----------------------------------|------------|---------|
|--(0)-----------------------------|-(0)--------|--(0)----|
|----------------------------------|------------|---------|
|----------------------------------|------------|---------|
|
|~~~~~~                               ~~~~~~~~~~~~~~~~~
|                  |--3--|  |-3--|
|  +Q    E  E     +E   E E  E  E E    W            +H
|-------12-------------------------|------------|---------|
|-(15)-----14b15r(14)-12---15------|------------|---------|
|------------------------x----14p0-|-12---------|-(12)----|
|----------------------------------|------------|---------|
|----------------------------------|------------|---------|
|----------------------------------|------------|---------|


 4/4
           |---3----|
    E   E  E     E  E +H
|---------------------------------------------|
|---------------------------------------------|
|---------------------------------------------|
|-------------------0-(0)---------------------|
|----------0h====2----------------------------|
|---0---0-------------------------------------|
|
|   ~~~~
|          |---3----|  |---3----|  |---3----|
|  +E   E  E     E  E  E     E  E  E     E  E
|------12----------12----------12----------12-|
|---------------12----------12----------12----|
|-(12)----14b16-------14b16-------14b16-------|
|---------------------------------------------|
|---------------------------------------------|
|---------------------------------------------|


                                                       C5         B5
                                    2/4               4/4
  +W                                 +H                H          H
|----------------------------------|-----------------|-----------------|
|----------------------------------|-----------------|-----------------|
|----------------------------------|-----------------|-5----------4----|
|-(0)------------------------------|-(0)-------------|-5----------4----|
|----------------------------------|-----------------|-3----------2----|
|----------------------------------|-----------------|-----------------|
|
|                                                          ~~~~~~
|  |---3----|  |---3----|  |--3--|           |--3--|
|  E     E  E  E     E  E  Q  Q  Q    E   E  E  E  E   Q   H.
|----------12----------12-------12-|-15--14-15p14-12-|----17b19========|
|-------12----------12----12-15----|-----------------|-----------------|
|-14b16-------14b16----------------|-----------------|-----------------|
|----------------------------------|-----------------|-----------------|
|----------------------------------|-----------------|-----------------|
|----------------------------------|-----------------|-----------------|


  C5      D5               E5
                                       |----3-----|
    H     H                 E    E     E  E       E   +H
|------------------------|--------------------------------------|
|------------------------|--------------------------------------|
|---5-----7--------------|--------------------------------------|
|---5-----7--------------|------------------------0---(0)-------|
|---3-----5--------------|-------------0h=2---------------------|
|------------------------|--0----0------------------------------|
|
|   ~~~~~~~~~~~~~~~
|                           |---3---|  |----3-----|
|  +H.        +S    S  E    E  E    E  E  E      +E   +Q.     E
|-(17)-------(17)r-17-15-|-17------14------------------------14-|
|------------------------|----17------17-17b19==(17)-(17)r------|
|------------------------|--------------------------------------|
|------------------------|--------------------------------------|
|------------------------|--------------------------------------|
|------------------------|--------------------------------------|


  +W
|-------------------------------------------|
|-------------------------------------------|
|-------------------------------------------|
|-(0)---------------------------------------|
|-------------------------------------------|
|-------------------------------------------|
|
|                       |--3--|
|  S  S  S  S  E  E  E  S  S  S  S  S  S  S
|-15p14----14-15-15-15-15p14----14-15p14----|
|-------17-------------------17----------17-|
|-------------------------------------------|
|-------------------------------------------|
|-------------------------------------------|
|-------------------------------------------|


  C5                      B5
   H                       H
|------------------------------------------------------|
|------------------------------------------------------|
|--5-----------------------4---------------------------|
|--5-----------------------4---------------------------|
|--3-----------------------2---------------------------|
|------------------------------------------------------|
|
|  S  S  S  S  S  S  S  S  S  T. T.  T. T.  S  S  S  S
|-14-15p14----14-15p14----14-15p14--17p14--15p14----14-|
|----------17----------17------------------------17----|
|------------------------------------------------------|
|------------------------------------------------------|
|------------------------------------------------------|
|------------------------------------------------------|


  C5             D5
   H               H
|-------------------------------------|
|-------------------------------------|
|--5---------------7------------------|
|--5---------------7------------------|
|--3---------------5------------------|
|-------------------------------------|
|
|        ~~~~~~~~~~~~~
|  S  S  E  +Q    +E.  S  S  S  S  S
|---------------------------------15--|
|-17p15-17-(17)--(17)-15-17p15--------|
|------------------------------16-----|
|-------------------------------------|
|-------------------------------------|
|-------------------------------------|


  E5
        |---3----|
   E  E E E      E +H                   +W
|-------------------------------------|-------------------------------|
|-------------------------------------|-------------------------------|
|-------------------------------------|-------------------------------|
|----------------0-(0)----------------|-(0)---------------------------|
|-------0h2---------------------------|-------------------------------|
|--0--0-------------------------------|-------------------------------|
|
|  ~~~~~~~~~~~~~~
|                                        |--3---|  |--3--|
|  Q.        +E     E  E E  X  +T.  S    E   E  E  E  E  E  E  Q.
|----------------------0--------------|-----------------------19b22r==|
|-17--------(17)----x-----------------|-17-----17----17-17-17---------|
|--------------------------12-(12)-16-|-----16----16------------------|
|-------------------------------------|-------------------------------|
|-------------------------------------|-------------------------------|
|-------------------------------------|-------------------------------|


  C5          B5             C5                D5
    H          H              H                  H
|--------------------------|-------------------------------|
|--------------------------|-------------------------------|
|---5----------4-----------|--5------------------7---------|
|---5----------4-----------|--5------------------7---------|
|---3----------2-----------|--3------------------5---------|
|--------------------------|-------------------------------|
|
|  +Q.    +E   Q.      +E     Q      +E   E     +Q    +Q
|-(19)---(19)-19b22r==(19)-|-19b22r=(19)-19b22r(19)--(19)--|
|--------------------------|-------------------------------|
|--------------------------|-------------------------------|
|--------------------------|-------------------------------|
|--------------------------|-------------------------------|
|--------------------------|-------------------------------|


               |-3--|
   E    E      E  E E +H             +W
|----------------------------------|------------------------------|
|----------------------------------|------------------------------|
|----------------------------------|------------------------------|
|-------------------0-(0)----------|-(0)--------------------------|
|--------------0h=2----------------|------------------------------|
|--0----0--------------------------|------------------------------|
|
|          ~~~~~~~~~~~~~~~~~~~~~          ~~~~~~~~~~~~
|  |---3---|                                              |--3--|
|  E  E    E  +H            +E   E    E   Q.      +E   E  E  E  E
|----------------------------------|------------------17-19p17----|
|-17-17---17-(17)----------(17)-17-|-20--20b22r==(20)----------21-|
|----------------------------------|------------------------------|
|----------------------------------|------------------------------|
|----------------------------------|------------------------------|
|----------------------------------|------------------------------|


   H                 H
|-----------------------------------------|
|-----------------------------------------|
|--5-----------------4--------------------|
|--5-----------------4--------------------|
|--3-----------------2--------------------|
|-----------------------------------------|
|
|           ~~~~~~~                    ~~
|                    |--3--|
|  S  S  S  S  +Q    E  E  E  S  S  S  S
|-17----------------19-17----17-----------|
|----20p17-17-(17)--------20----20p17-17--|
|-----------------------------------------|
|-----------------------------------------|
|-----------------------------------------|
|-----------------------------------------|


  C5               D5
    H               H
|---------------------------------------|
|---------------------------------------|
|---5---------------7-------------------|
|---5---------------7-------------------|
|---3---------------5-------------------|
|---------------------------------------|
|
|   ~~~~
|  +Q    S  S  S S  S  S  S  S  S  S  E
|---------------------------------------|
|-(17)--20p19p17---20p19p17----19----17-|
|----------------x----------19----19----|
|---------------------------------------|
|---------------------------------------|
|---------------------------------------|


                          ~~~~~~~~~~~~
    |--3---|  |--3--|                     |--3--|  |--3--|
    E   E  E  E  E  E  E  E      +Q       E  E  E  E  E  E  e  E  +E   E
|--15p=12----12------------------------|----------------------------------||
|---------15----15p12-15-15b17==(15)r--|-15p12----12----------------------||
|--------------------------------------|-------14----14p12----12-(12)\----||
|--------------------------------------|----------------------------------||
|--------------------------------------|-------------------14-------------||
|--------------------------------------|----------------------------------||
|
|                                         |--3--|  |--3--|
|  +Q         Q        H                  E  E  E  E  E  E  e  E  +E   E
|--------------------------------------|----------------------------------||
|-(17)---------------------------------|-15p12----12----------------------||
|--------------------------------------|-------14----14p12----12-(12)\----||
|--------------------------------------|----------------------------------||
|--------------------------------------|-------------------14-------------||
|--------------------------------------|----------------------------------||


 3rd Verse
  E5
  |--3--| |-3-|       |-3-|
  E E   E E E E +E  E E E E
|---------------------------|
|---------------------------|
|---------------------------|
|-------------0-(0)-0-----2-|
|---------0h2---------0h2---|
|-0-0---0-------------------|
|
|         |-3-|       |-3-|
| E   E   E E E +E  E E E E
|---------------------------|
|---------------------------|
|---------------------------|
|-------------0-(0)-0-----2-|
|---------0h2---------0h2---|
|-0---0---------------------|


  |--3--| |-3-|       |-3-|   |--3--| |-3-|       |-3-|
  E E   E E E E +E  E E E E   E E   E E E E +E  E E E E
|---------------------------|---------------------------|
|---------------------------|---------------------------|
|---------------------------|---------------------------|
|-------------0-(0)-0-----2-|-------------0-(0)-0-----2-|
|---------0h2---------0h2---|---------0h2---------0h2---|
|-0-0---0-------------------|-0-0---0-------------------|
|
|         |-3-|       |-3-|           |-3-|       |-3-|
| E   E   E E E +E  E E E E   E   E   E E E +E  E E E E
|---------------------------|---------------------------|
|---------------------------|---------------------------|
|---------------------------|---------------------------|
|-------------0-(0)-0-----2-|-------------0-(0)-0-----2-|
|---------0h2---------0h2---|---------0h2---------0h2---|
|-0---0---------------------|-0---0---------------------|


                              B5
  |--3--| |-3-|       |-3-|       |-3-|  |--3---| |-3-|
  E E   E E E E +E  E E E E   E E E E E  E  E   E E E E
|---------------------------|------------7--------------|
|---------------------------|------------7--------------|
|---------------------------|------------7--------------|
|-------------0-(0)-0-----2-|---9---------------9---9---|
|---------0h2---------0h2---|---------------------------|
|-0-0---0-------------------|-7---7-7-7-----7-----7---7-|
|
|         |-3-|       |-3-|       |-3-|           |-3-|
| E   E   E E E +E  E E E E   E E E E E +E    E   E E E
|---------------------------|---------------------------|
|---------------------------|---------------------------|
|---------------------------|---------------------------|
|-------------0-(0)-0-----2-|---------0-(0)---0-------2-|
|---------0h2---------0h2---|-2-2-0h2-------------0h2---|
|-0---0---------------------|---------------------------|


  |--3--| |-3-|  |--3---|
  E E   E E E E  E  E   E Q
|-7-----------------------7\-----|
|-7-----------------------7\-----|
|-7--------------7--------7\-----|
|-------9---9-9--9--x---x--------|
|--------------------------------|
|---7----------------------------|
|
|         |-3-|           |-3-|
| E   E   E E E +E    E   E E E
|--------------------------------|
|--------------------------------|
|--------------------------------|
|-------------0-(0)---0-------2--|
|-2---2---0h2-------------0h2----|
|--------------------------------|


  E5
  |--3--| |-3-|       |-3-|
  E E   E E E E +E  E E E E
|---------------------------|
|---------------------------|
|---------------------------|
|-------------0-(0)-0-----2-|
|---------0h2---------0h2---|
|-0-0---0-------------------|
|
|         |-3-|       |-3-|
| E   E   E E E +E  E E E E
|---------------------------|
|---------------------------|
|---------------------------|
|-------------0-(0)-0-----2-|
|---------0h2---------0h2---|
|-0---0---------------------|


                              A5
  |--3--| |-3-|       |-3-|
  E E   E E E E +E  E E E E   H.               E   E
|---------------------------|---------------------------|
|---------------------------|----------------------3----|
|---------------------------|-2--------------------0----|
|-------------0-(0)-0-----2-|-2--------------------5----|
|---------0h2---------0h2---|-0----------------0--------|
|-0-0---0-------------------|---------------------------|
|
|         |-3-|       |-3-|        |-3-|       |--3--|
| E   E   E E E +E  E E E E   E  E E E E +E  E E E   E
|---------------------------|---------------------------|
|---------------------------|---------------------------|
|---------------------------|----------0-(0)-0-------2--|
|-------------0-(0)-0-----2-|------0h2---------0h2------|
|---------0h2---------0h2---|-0--0----------------------|
|-0---0---------------------|---------------------------|


                             E5
                             |--3--| |-3-|       |-3-|
  +Q    Q     +E  E +Q       E E   E E E E +E  E E E E
|-------3-----(3)-5-(5)----|---------------------------|
|-(3)----------------------|---------------------------|
|-(0)----------------------|---------------------------|
|-(5)----------------------|-------------0-(0)-0-----2-|
|--------------------------|---------0h2---------0h2---|
|--------------------------|-0-0---0-------------------|
|
|       |-3-|        |-3-|           |-3-|       |-3-|
|  E  E E E E +E  E  E E E   E   E   E E E +E  E E E E
|--------------------------|---------------------------|
|--------------------------|---------------------------|
|-----------0-(0)-0------2-|---------------------------|
|-------0h2----------0h2---|-------------0-(0)-0-----2-|
|--0--0--------------------|---------0h2---------0h2---|
|--------------------------|-0---0---------------------|


  |--3--| |-3-|       |-3-|
  E E   E E E E +E  E E E E
|---------------------------|
|---------------------------|
|---------------------------|
|-------------0-(0)-0-----2-|
|---------0h2---------0h2---|
|-0-0---0-------------------|
|
|         |-3-|       |-3-|
| E   E   E E E +E  E E E E
|---------------------------|
|---------------------------|
|---------------------------|
|-------------0-(0)-0-----2-|
|---------0h2---------0h2---|
|-0---0---------------------|


    B5                                A5    C5      E5
    |--3--|                                         |--3--| |-3-|       |-3-|
    E E   E E   E   +E  E E   +E      Q  Q  Q  Q    E E   E E E E +E  E E E E
||----------7---7---(7)-7-7---(7)---|-------------|----------------------------|
||o---------7---7---(7)-7-7---(7)---|-------------|----------------------------|
||----------7---7---(7)-7-7---(7)---|-2--2--5--5--|----------------------------|
||----------------------------------|-2--2--5--5--|-------------0-(0)-0-----2--|
||o---------------------------------|-0--0--3--3--|---------0h2---------0h2----|
||--7-7---7-------------------------|-------------|-0-0---0--------------------|
|
|           |--3--|       |---3---|                         |-3-|       |-3-|
|   E   E   E E   E +E  E E E     E   Q  Q  Q  Q    E   E   E E E +E  E E E E
||----------------------------------|-------------|----------------------------|
||o---------------------------------|-------------|----------------------------|
||----------------------------------|-2--2--5--5--|----------------------------|
||----------------0-(0)-0---------2-|-2--2--5--5--|-------------0-(0)-0-----2--|
||o-2---2---0h2-----------0h2-------|-0-----3-----|---------0h2---------0h2----|
||----------------------------------|-------------|-0---0----------------------|


                                N.C.
  Gtr III
  W                             W
|----------------------------||---------------|
|---------------------------o||---------------|
|----------------------------||---------------|
|----------------------------||---------------|
|---------------------------o||---------------|
|----------------------------||---------------|
|
| Gtr II
| |--3--| |-3-|       |-3-|     |-3-| |-3-|
| E E   E E E E +E  E E E E     Q Q Q Q Q Q
|----------------------------||---------------|
|---------------------------o||---------------|
|----------------------------||---------------|
|-------------0-(0)-0-----2--||-2-------------|
|---------0h2---------0h2---o||---------0-2---|
|-0-0---0--------------------||---0-2-3-------|
|
| Gtr I
|         |-3-|       |-3-|     |-3-| |-3-|
| E   E   E E E +E  E E E E     Q Q Q Q Q Q
|----------------------------||---------------|
|---------------------------o||---------------|
|----------------------------||---------------|
|-------------0-(0)-0-----2--||-2-------------|
|---------0h2---------0h2---o||---------0-2---|
|-0---0----------------------||---0-2-3-------|


                    Guitar Solo 2
                     A5
                                  ~~~~~
            |-3-|
  H     Q   E E E    H            H
|-----------------||---------------------------|
|-----------------||---------------------------|
|---------------5-||-7b9----------7b9==========|
|-------------7---||---------------------------|
|-----------------||---------------------------|
|-----------------||---------------------------|
|
| |-3-| |--3--|            |-3-|         |-3-|
| Q Q Q Q Q   Q      E   E E E E +E    E E E E
|-----------------||---------------------------|
|-----------------||---------------------------|
|-----------------||-----------0-(0)---0-----2-|
|-------------0---||-------0h2-----------0h2---|
|-0-2-3-2-3-------||-0---0---------------------|
|-----------------||---------------------------|
|
| |-3-| |--3--|            |-3-|         |-3-|
| Q Q Q Q Q   Q      E   E E E E +E    E E E E
|-----------------||---------------------------|
|-----------------||---------------------------|
|-----------------||-----------0-(0)---0-----2-|
|-------------0---||-------0h2-----------0h2---|
|-0-2-3-2-3-------||-0---0---------------------|
|-----------------||---------------------------|


   ~~~~
                     |-3-|
  +H            E  E E E E
|------------------5-------|
|---------------5----8p5---|
|-(7)r-------------------7-|
|--------------------------|
|--------------------------|
|--------------------------|
|
| Gtrs I, II
|        |-3-|       |-3-|
|  E   E E E E +E  E E E E
|--------------------------|
|--------------------------|
|------------0-(0)-0-----2-|
|--------0h2---------0h2---|
|--0---0-------------------|
|--------------------------|


                                                   ~~~~~~
                                       |--3--| |-3-|
  E   +S  S a E   E    S  E.   Q       E E   E E E E +Q    Q
|------------------------------------|---------------------0-----|
|------------------------------------|---------------------0-----|
|-7b9r(7)---------5------------------|---------------------------|
|----------------------7p=5\---------|---------------------------|
|-----------5h7----------------3-----|-3p0---3p0-----------------|
|------------------------------------|-----------3s5-(5)---------|
|
|             |--3--|          |-3-|           |-3-|       |-3-|
| E    E      E E   E +E     E E E E   E   E   E E E +E  E E E E
|------------------------------------|---------------------------|
|------------------------------------|---------------------------|
|-------------------0-(0)----0-----2-|-------------0-(0)-0-----2-|
|-------------0h2--------------0h2---|---------0h2---------0h2---|
|-0----0-----------------------------|-0---0---------------------|
|------------------------------------|---------------------------|


  E5
   |----3-----|     |---3----|  |----3-----|     |---3----|
   e     E    e     E  e     E  e     E    e     E  e     E
|-------12---------12-------12-------12---------12-------12-|
|-15b17------15b17----15b17----15b17------15b17----15b17----|
|-----------------------------------------------------------|
|-----------------------------------------------------------|
|-----------------------------------------------------------|
|-----------------------------------------------------------|
|
|                   |---3----|                   |---3----|
|  E       E        E  E     E +E       E        E  E     E
|-----------------------------------------------------------|
|-----------------------------------------------------------|
|-----------------------------------------------------------|
|----------------------------0-(0)------0-----------------2-|
|-------------------0h=2-------------------------0h=2-------|
|--0-------0------------------------------------------------|


                                                             ~~~~~~~~~~~~~~~~~~~~
   |----3-----|     |---3---|  |----3----|     |---3----|                           |--3--|
   e     E    e     E  E    E  E    E    E     E  E     E    H              +E   E  E  E  E
|-------12---------12-------------------------12-------12-|-15b17==========(15)r---12--------|
|-15b17------15b17----15b17---15b17-----15b17----15b17----|---------------------------15p13--|
|---------------------------------------------------------|----------------------------------|
|---------------------------------------------------------|----------------------------------|
|---------------------------------------------------------|----------------------------------|
|---------------------------------------------------------|----------------------------------|
|
|                   |---3---|                  |---3----|            |-3-|          |--3--|
|  E       E        E  E    E +E      E        E  E     E    E     E E E E  +E   E  E  E  E
|---------------------------------------------------------|----------------------------------|
|---------------------------------------------------------|----------------------------------|
|---------------------------------------------------------|----------------------------------|
|---------------------------0-(0)-----0-----------------2-|--------------0--(0)--0--------2--|
|-------------------0h=2-----------------------0h=2-------|----------0h2------------0h=2-----|
|--0-------0----------------------------------------------|--0-----0-------------------------|


                                       A5
                                           ~~~~~~~~~~~~~~                ~~~
                             |--3--|    |---3----|           |---3----|
  E  E  E    S    S  E   E  +E  E  E    E  E    +E   +Q      E   E    E  Q
|------------------------------------|-----------------------------------------|
|-x-13p12----------------------------|-----------------------------------------|
|-x---------16p==14p12---------------|-----------------------------------------|
|------------------------------------|-----------------------------------------|
|-----------------------12-(12)10----|-10-------------------10-------10-12-----|
|---------------------------------12-|----12---(12)-(12)--------12-------------|
|
|       |--3---|             |--3--|                  |-3-|              |-3-|
| E  E  E E    E    +E   E   E  E  E    E    E        E E E +E     E     E E E
|------------------------------------|-----------------------------------------|
|------------------------------------|-----------------------------------------|
|------------------------------------|--------------------0-(0)----0---------2-|
|--------------0----(0)--0---------2-|----------------0h2----------------0h2---|
|-------0h2------------------0h=2----|--0----0---------------------------------|
|-0--0-------------------------------|-----------------------------------------|


                                        ~~
   |---3---|  |--3--|  |---3----|
   E  E    E  E  E  E  E   E    E  E    E
|-------------------------------------------|
|-------------------------------------------|
|-------------------------12------14---14---|
|-10------10-12p10-12s14-------14-----------|
|----12-------------------------------------|
|-------------------------------------------|
|
|             |--3--|              |--3---|
|  E    E     E  E  E +E     E     E E    E
|-------------------------------------------|
|-------------------------------------------|
|-------------------0-(0)----0------------2-|
|-------------0h=2-----------------0h2------|
|--0----0-----------------------------------|
|-------------------------------------------|


    ~~~~                              ~~~~~
    |----3----|     |----3-----|
   +Q     Q   Q     Q     Q    Q      H             E     E E    E
|----------------------------------|----------------------x----------|
|------------------------12---13---|-13b15---------13b15\------------|
|-(14)---14---x---/14--------------|----------------------------14---|
|----------------------------------|---------------------------------|
|----------------------------------|---------------------------------|
|----------------------------------|---------------------------------|
|
|           |-3-|           |-3--|           |-3-|          |--3---|
|   E  E    E E E  +E  E    E  E E    E    E E E E +E     E E E    E
|----------------------------------|---------------------------------|
|----------------------------------|---------------------------------|
|---------------0--(0)-0---------2-|-------------0-(0)----0--------2-|
|-----------0h2-------------0h=2---|---------0h2------------0h2------|
|---0--0---------------------------|--0----0-------------------------|
|----------------------------------|---------------------------------|


  C5                               B5
                           |--3--|        |--3--|        |--3--|
   E     T  T  T  T  E     S  S  S  E     S  S  S  E     S  S  S
|-------12----------------12-------------12-------------12--------|
|----------15p12-------------15p12----------15p12----------15p12--|
|-14b16----------14-14b16----------14b16----------14b16-----------|
|-----------------------------------------------------------------|
|-----------------------------------------------------------------|
|-----------------------------------------------------------------|
|
|  H                                H
|-----------------------------------------------------------------|
|-----------------------------------------------------------------|
|--5--------------------------------4-----------------------------|
|--5--------------------------------4-----------------------------|
|--3--------------------------------2-----------------------------|
|-----------------------------------------------------------------|


  C5                                   D5
                                        |--3--|        |--3--|
   S.    T  T  S.  S     T  T  S  S     S  S  S  E     S  S  S  S  S
|-------12--------------12-------------12-------------12----------17b19==|
|----------15p12-----------15p12----------15p12----------15p12-----------|
|-14b16-----------14b16----------14b16----------14b16----------14--------|
|------------------------------------------------------------------------|
|------------------------------------------------------------------------|
|------------------------------------------------------------------------|
|
|  H                                    H
|------------------------------------------------------------------------|
|------------------------------------------------------------------------|
|--5------------------------------------7--------------------------------|
|--5------------------------------------7--------------------------------|
|--3------------------------------------5--------------------------------|
|------------------------------------------------------------------------|


  E5
                                          ~~~~~~~~~~~~~~~~~~~~~
                 |-------3--------|
   +H            Q     Q         +Q       H              +E    E Q
|-(17)r---------17----17b17.5r==(17)---|-17pb19==========(x)r\---------|
|--------------------------------------|-------------------------------|
|--------------------------------------|-------------------------------|
|--------------------------------------|-------------------------------|
|--------------------------------------|-------------------------------|
|--------------------------------------|-------------------------------|
|
|         |-3-|               |--3---|             |-3-|         |-3-|
|   E   E E E E +E  E         E   E  E    E      E E E E +E    E E E E
|--------------------------------------|-------------------------------|
|--------------------------------------|-------------------------------|
|--------------------------------------|-------------------------------|
|-------------0-(0)-0----------------2-|---------------0-(0)---0-----2-|
|---------0h2-----------------0h==2----|-----------0h2-----------0h2---|
|---0---0------------------------------|--0------0---------------------|


  C5              B5        C5          D5
       ~~~~~~~~~~~~~~~~                           ~~~~
                            |-3-| |-3-|
  E   +Q      +E  +H        E E E E E E S S S S S E.
|-------------------------|-------------3p0---0------|
|-------------------------|-0h3p0-3h5p3-----3---3s5--|
|-2b3-(2)b4===(2)-(2)r----|--------------------------|
|-------------------------|--------------------------|
|-------------------------|--------------------------|
|-------------------------|--------------------------|
|
| H                H        H           H
|-------------------------|--------------------------|
|-------------------------|--------------------------|
|-5----------------4------|-5-----------7------------|
|-5----------------4------|-5-----------7------------|
|-3----------------2------|-3-----------5------------|
|-------------------------|--------------------------|


  E5
 ~~~~~
        |-3--|   |--3---| |-3-|
  +E  E E E +E   E  E   E E E E
|-------3-----------3---3-------|
|-(5)-5---5-(5)--5--------x-5-5-|
|-------------------------------|
|-------------------------------|
|-------------------------------|
|-------------------------------|
|
|       |-3--|            |-3-|
|  E  E E E  E  +E    E   E E E
|-------------------------------|
|-------------------------------|
|-------------------------------|
|------------0--(0)---0-------2-|
|-------0h2---------------0h2---|
|--0--0-------------------------|


                                                    C5         B5
  |--3--|   |----3-----|      |---3----| |--3---|                             |--3--|
  E E   E   E  E      +E      E    E   E E +E   E   Q   Q       +E    +S   S  E  E  E
|-3-----------------------------------------------|----12------(12)-------------------|
|---3---5/-[8][8]b9==([8])r-/10--/10s==8-8-(8)/---|----15b17===(15)r-(15)p12-15p12----|
|-------------------------------------------------|--------------------------------14-|
|-------------------------------------------------|-----------------------------------|
|-------------------------------------------------|-----------------------------------|
|-------------------------------------------------|-----------------------------------|
|
|           |----3-----|                 |--3---|
| E   E     E  E       E     +E      E   E  E   E   H            H
|-------------------------------------------------|-----------------------------------|
|-------------------------------------------------|-----------------------------------|
|-------------------------------------------------|-5------------4--------------------|
|----------------------0-----(0)-----0----------2-|-5------------4--------------------|
|-----------0h=2-------------------------0h=2-----|-3------------2--------------------|
|-0---0-------------------------------------------|-----------------------------------|


  C5                               D5
                           |--3--|  |--3--|  |---3---|
   S     +S   +S      +S   E  E  E  E  E  E  E   E  +E
|---------------------------------------------------------|
|---------------------------------------------------------|
|-14b16r(14)-(14)b16r(14)-12----12------------------------|
|----------------------------14----14p12----12\-----------|
|----------------------------------------14-----12-(12)---|
|---------------------------------------------------------|
|
|  H                                H
|---------------------------------------------------------|
|---------------------------------------------------------|
|--5--------------------------------7---------------------|
|--5--------------------------------7---------------------|
|--3--------------------------------5---------------------|
|---------------------------------------------------------|


  E5
                           ~~~
                  |--3--|        |--3--|
   +E       +E    E  E  E  Q     E  E  E
|----------------------------------------|
|----------------------------------------|
|----------------------------------------|
|----------------------------------------|
|-(12)b13==(12)r-10----10-------10----10-|
|-------------------12----12-------12----|
|
|                 |--3--|        |--3--|
|   E        E    E  E  E +E  E  E  E  E
|----------------------------------------|
|----------------------------------------|
|----------------------------------------|
|-----------------------0-(0)-0--------2-|
|-----------------0h=2-----------0h=2----|
|---0--------0---------------------------|


                                           C5           B5
                         ~~~                         ~~
    |--3--|   |--3---|         |--3---|     |--3--|
    E  S  E.  E  E   E   Q     E  E   E     E  E  E  Q   E  E  E      +E
|----------------------------------------|----------------------------------|
|------------12-12------12----------(12)-|----14----12-----12-15b17==(15)r--|
|------------12-12------12-----------12--|----14----12--12------------------|
|-----12-----------(14)-------14-14------|-14----14-------------------------|
|-/14----14------------------------------|----------------------------------|
|----------------------------------------|----------------------------------|
|
|             |--3---|         |--3---|
|   E     E   E  E   E  +E  E  E  E   E     H            H
|----------------------------------------|----------------------------------|
|----------------------------------------|----------------------------------|
|----------------------------------------|--5------------4------------------|
|--------------------0--(0)-0---------2--|--5------------4------------------|
|-------------0h=2-------------0h=2------|--3------------2------------------|
|---0-----0------------------------------|----------------------------------|


   |--3--|  |--3--|  |--3--|  |-----3------|    |---3---|  |----3-----|  |---3----|   |--3--|
   E  E  E  E  E  E  E  E  E  E      +E    E    E  E    E  E     +E   E  E   E    E   E  E  E
|-12----12-15-12----12-----------------------|-12---------------------------------------------|
|----15----------15----15-12--------------12-|----15p==12-------------------------------------|
|----------------------------14b16==(14)r----|------------14b16r(14)p12-14p=12------(12)------|
|--------------------------------------------|-----------------------------------14-----14p12-|
|--------------------------------------------|------------------------------------------------|
|--------------------------------------------|------------------------------------------------|
|
|                                                          |----3-----|               |--3--|
|  H                 H                          E    E     E      E   E +E     E      E  E  E
|--------------------------------------------|------------------------------------------------|
|--------------------------------------------|------------------------------------------------|
|--5-----------------7-----------------------|------------------------------------------------|
|--5-----------------7-----------------------|------------------------0-(0)----0------------2-|
|--3-----------------5-----------------------|-------------0h=====2-------------------0h=2----|
|--------------------------------------------|--0----0----------------------------------------|


   |---3----|  |--3--|   |----3----|
   E  E     E  E  E  E  +E   E    +E   S  E      S
|----------------------------------------------------|
|----------------------------------------------------|
|----12-------------------------------12--------12---|
|-------------------12-(12)S14---(14)----14----------|
|-14------/13s12p10----------------------------------|
|----------------------------------------------------|
|
|              |--3--|                 |--3---|
|  E    E      E  E  E  +E     E       E    E E
|----------------------------------------------------|
|----------------------------------------------------|
|----------------------------------------------------|
|--------------------0--(0)----0--------------2------|
|--------------0h=2--------------------0h===2--------|
|--0----0--------------------------------------------|


  C5           B5          C5                 D5
                                               ~~~~~~~~~~~~~
                             |----3-----|               |-----3-----|
   +E   E   Q   H           +Q   Q      Q      Q       +E    E      E
|--------------17pb19r===|=(17)-17pb19-17pb18-17b19===(17)r-17pb19\---|
|------------------------|--------------------------------------------|
|-(12)-(x)/--------------|--------------------------------------------|
|------------------------|--------------------------------------------|
|------------------------|--------------------------------------------|
|------------------------|--------------------------------------------|
|
|   H           H            H                 H
|------------------------|--------------------------------------------|
|------------------------|--------------------------------------------|
|---5-----------4--------|---5-----------------7----------------------|
|---5-----------4--------|---5-----------------7----------------------|
|---3-----------2--------|---3-----------------5----------------------|
|------------------------|--------------------------------------------|


  E5
       ~~~~~~~~~~~~~~~~~~~~~~~~~~~~~~~~~~~~~
                                        |-----3------|             |---3----|
  Q    H.                       +Q     +E    E      +E   Q        +E   +E   E
|----------------------------|--------------------------------------------------|
|-----15b17==================|=(15)---(15)r-15pb17r(15)-15b18====(15)r(15)-12---|
|----------------------------|--------------------------------------------------|
|----------------------------|--------------------------------------------------|
|----------------------------|--------------------------------------------------|
|----------------------------|--------------------------------------------------|
|
|      |---3---|       |-3-|            |-----3------|             |---3----|
| E E  E     E E +E  E E E E     E  E   E    E       E  +E     E   E    E   E
|----------------------------|--------------------------------------------------|
|----------------------------|--------------------------------------------------|
|----------------------------|--------------------------------------------------|
|--------------0-(0)-0-----2-|-----------------------0--(0)----0------------2---|
|------0h====2---------0h2---|----------0h===2---------------------0h===2-------|
|-0-0------------------------|---0--0-------------------------------------------|


  C5                                   B5
           |---3---|  |------5-------|  |---3----|  |---3----|  |3-|
   E      +S    S  S  S  S  S     S  S  E  E  T  T  S     S  S  S  E.
|-----------------12-------------------12-------12----------12--------|
|--------------12----15p12-------12-15----12-12----------12----15p12--|
|-14b16==(14)r-------------14b16-------------------14b16--------------|
|---------------------------------------------------------------------|
|---------------------------------------------------------------------|
|---------------------------------------------------------------------|
|
|  H                                    H
|---------------------------------------------------------------------|
|---------------------------------------------------------------------|
|--5------------------------------------4-----------------------------|
|--5------------------------------------4-----------------------------|
|--3------------------------------------2-----------------------------|
|---------------------------------------------------------------------|


  A5                                          B5
   |---3----|  |--3--|     |--3--|  |-3--|     |--3--|  |--3--|     |--3--|  |--3---|
   S     S  S  S  S  S     S  S  S  S S  S     S  S  S  S  S  S     S  S  S  S  S  +S
|----------12----------------12------------------12-------12----------12-------12-(12)-|
|-------12----15p12-------12----15p12---------12----15p12----------12----15p12---------|
|-14b16-------------14b16---------------14b16----------------14b16---------------------|
|--------------------------------------------------------------------------------------|
|--------------------------------------------------------------------------------------|
|--------------------------------------------------------------------------------------|
|
|  H                                           H
|--------------------------------------------------------------------------------------|
|--------------------------------------------------------------------------------------|
|--2-------------------------------------------4---------------------------------------|
|--2-------------------------------------------4---------------------------------------|
|--0-------------------------------------------2---------------------------------------|
|--------------------------------------------------------------------------------------|


  C5       B5
   ~~~~~
               |--3--|
   H       Q   E  E  E
|-17b19-------15-12-12-|
|----------------------|
|----------------------|
|----------------------|
|----------------------|
|----------------------|
|
|  H       H
|----------------------|
|----------------------|
|--5-------4-----------|
|--5-------4-----------|
|--3-------2-----------|
|----------------------|


  A5                  B5
   |--3---|  |--3---|  |---3----|  |--3--|
   E   E  E  E  E   E  E  E     E  E  E  E
|-12-----12-----------------------12-------|
|----/17----15-12-/15-12-------12----15p12-|
|------------------------14b16-------------|
|------------------------------------------|
|------------------------------------------|
|------------------------------------------|
|
|  H                   H
|------------------------------------------|
|------------------------------------------|
|--2-------------------4-------------------|
|--2-------------------4-------------------|
|--0-------------------2-------------------|
|------------------------------------------|


  C5                        B5                     A5    B5
                                                    ~~
   |------3------|  |--3--|  |---3----|  |--3--|
   S     +S   E  E  E  E  E  S  S  E  E  E  E  E    H    H
|------------------------------------------------|-------------||
|------------------------------------------------|-------------||
|-14b16r(14)p12----12----------------------------|-------x\----||
|---------------14----14p12----------------------|-------x\----||
|---------------------------14s12p10----10-------|-------------||
|------------------------------------12----12p10-|-12----------||
|
|  H                         H                      H    H
|------------------------------------------------|-------------||
|------------------------------------------------|-------------||
|--5-------------------------4-------------------|--2----4-----||
|--5-------------------------4-------------------|--2----4-----||
|--3-------------------------2-------------------|--0----2-----||
|------------------------------------------------|-------------||


 Outro
  N.C.
  Gtrs I, III
   |--3--|  |--3--|  |--3--|  |-3--|
   E  E  E  E  E  E  E  E  E  E  E E
|------------------------------------|
|--5p=3-----3------------------------|
|--------4-----4p=2--4p=2-----2------|
|--------------------------5-----5p2-|
|------------------------------------|
|------------------------------------|
|
| Gtr II
|  |--3--|  |--3--|  |--3--|  |-3--|
|  E  E  E  E  E  E  E  E  E  E  E E
|-12p10----10------------------------|
|-------12----12p10-12p10----10------|
|-------------------------12----12p9-|
|------------------------------------|
|------------------------------------|
|------------------------------------|


                                   E5
   |-3--| |-3--|  |-3--| |--3--|
   E E  E E  E E  E E  E E  E  E   q  Q  H
|--------------------------------|------------*|
|--------------------------------|------------*|
|--------------------------------|------------*|
|--5p2----2----------------------|-2----------*|
|-------5----5p2--5p2----2-------|-2----------*|
|----------------------5----5--3-|-0----------*|
|
|  |-3--| |-3--|  |-3--| |--3--|
|  E E  E E  E E  E E  E E  E  E   q  Q  H
|--------------------------------|------------*|
|--------------------------------|------------*|
|-12p9----9----------------------|------------*|
|------12---12p9-12p9----9-------|-2----------*|
|---------------------12---10-12-|-2----------*|
|--------------------------------|-0----------*|


Duration Legend
---------------
W - whole; H - half; Q - quarter; E - 8th; S - 16th; T - 32nd; X - 64th; a - acciaccatura
+ - note tied to previous; . - note dotted; .. - note double dotted
Uncapitalized letters represent notes that are staccato (1/2 duration)
Irregular groupings are notated above the duration line
Duration letters will always appear directly above the note/fret number it represents the
duration for.  Duration letters with no fret number below them represent rests.  Multi-
bar rests are notated in the form Wxn, where n is the number of bars to rest for.  Low
melody durations appear below the staff

Tablature Legend
----------------
 h   - hammer-on
 p   - pull-off
 b   - bend
 pb  - pre-bend
 r   - bend release (if no number after the r, then release immediately)
 /\  - slide into or out of (from/to "nowhere")
 s   - legato slide
 S   - shift slide
  - natural harmonic
[n]  - artificial harmonic
n(n) - tapped harmonic
 ~   - vibrato
 tr  - trill
 T   - tap
 TP  - trem. picking
 PM  - palm muting
\n/  - tremolo bar dip; n = amount to dip
 \n  - tremolo bar down
 n/  - tremolo bar up
/n\  - tremolo bar inverted dip
 =   - hold bend; also acts as connecting device for hammers/pulls
 <>  - volume swell (louder/softer)
 x   - on rhythm slash represents muted slash
 o   - on rhythm slash represents single note slash

Misc Legend
-----------
 |  - bar
||  - double bar
||o - repeat start
o|| - repeat end
*|  - double bar (ending)
 :  - bar (freetime)
 $  - Segno
 &  - Coda
Tempo markers -  = BPM(8/16=s8/s16), where s8 = swing 8ths, s16 = swing 16ths


***************************************************************************************
* Generated using Power Tab Editor by Brad Larsen - http://powertab.guitarnetwork.org *
***************************************************************************************

            
            
Suggest correction
Creating personal tab
Creating personal tab
You can edit any tab online and save it as your Personal.

You can edit, replace or remove any tab part or add personal notes – all changes will be seen only by you.

Personal tabs can be accessed anytime from any device, even offline.
Learn more »
Give kudos to tab author, rate the tab!
1 2 3 4 5
comments
print report bad tab
guest
You may want to rate the tab now too:
select rating
Wanna post a correction for this tab? Suggest correction