Oops, an error
Loading. Please wait.

Cowboy Song tab

version 1
version 1

Whole song

112,463 views 201 this week
7 commentsread comments
1 2 3 4 5
x 15
add to favorites
×
Save as Personal and add changes to this tab that will be seen only by you. Learn more ›
×
You can save this tab as Personal to edit and correct it or add notes. All changes will be seen only by you. Learn more »
launch autoscroll
font size
0
reset
how to read this tab
guitar tuner
backing track
0:00
0:00
edit
Autoscroll
slow
fast
+/-
esc
set tempo
stop
Author
Unregistered
e|---------------------|------------------------|------------2-------|
B|---------2-2h3p2-----|------------------------|--------------------|
G|-------2-----2-------|------------------------|---------2----------|
D|-----2-----------2---|-----2--------2-2-------|-------2------------|
A|---0---------------0-|---2------2h4-----4p2---|-----4------------2-|
E|---------------------|-0--------------------0-|---2-----------2--0-|


e|----------3p2-----|----------------------|------------7p=3------|---|
B|-^3---------------|----------2-2h3p2-----|---------5------------|---|
G|-^2-------------2-|--------2-------------|-----------------4----|---|
D|-^0--0--------0---|------2-----------2---|-------6------------6-|---|
A|------------------|----0---------------0-|----4-----------------|---|
E|------------------|----------------------|----------------------|---|


e|---------2----------|-^2--3p2-------|-------------------|-------------------|
B|--------------------|-^3------3-----|-------2-2h3p2-----|-------------------|
G|-------2------------|-^2--------2---|-----2-------------|-------------------|
D|-----2---------^2---|-^0----------0-|---2-----------2---|-----2-------2-2---|
A|---4-----------^2---|---------------|-0---------------0-|---2-----2h4-------|
E|-2-------------^0---|---------------|-------------------|-0-----0-----------|


e|------------------|-------2--------|------------------|---------7----|
B|----------2-------|-----3---3------|--------2h3p2-----|-------5---5--|
G|--------2---------|---2-------2----|-----2--------2-2-|-----4--------|
D|------2-----------|-0-----------0--|---2----------2---|---6----------|
A|---4------------2-|----------------|-0----------------|-4------------|
E|-2----------2-0---|----------------|------------------|--------------|


 
e|---------2-------|-2---------------------------------------------|
B|-----------------|-3---------------------------------------------|
G|-------2---------|-2----2-2----2------2-2-----2------2-2---------|
D|-----2-------2---|-0--------4----4--4------2----2--2-----0--0----|
A|---4---------2---|--------------------------------------------4--|
E|-2-----------0---|-----------------------------------------------|


                 ~    ~             ~
e|---------5-5-|----------------------------------------|--------|
B|-------------|----------------------------------------|--------|
G|------2------|----2------2-2----2------2-2------------|-2-2-2--|
D|-------------|-4----4--4-----2----2--2------0---------|-2------|
A|-2--0--------|---------------------------------4-2--0-|-0------|
E|-------------|----------------------------------------|--------|


e|-------------|---------------|-------------|--------------|
B|-------------|---------------|-----------3-|----3---------|
G|-2-----------|---------------|-----------2-|--4-2---4--2--|
D|-2-4--2--4---|---------------|---4----2--0-|--0-0---0--2--|
A|-0-0--0--4-2-|--2-4--2-2-4-4-|-4-4----2----|-----------0--|
E|-----------0-|--0-0--0-0-0-2-|-2---2--0----|--------------|


                        PM            PM
e|-----------------|-------------|-------------|--------------|
B|-----------------|--5-0---5----|-----------3-|----3---------|
G|-2---------------|--4-0---4----|-----------2-|--4-2--4------|
D|-2---4---2---4-6-|--6---6-6--4-|--4------2-0-|--0-0--0-2----|
A|-0-0-0-0-0-0-0-4-|------4----4-|--4-0--4-2---|---------0----|
E|-----------------|-----------2-|-------2-0---|--------------|


e|-----------------|-----------------|----------|----|
B|-----------------|---------------3-|---3------|----|
G|-2---------------|---------------2-|-4-2-4-2--|----|
D|-2-4-2-4---------|---------4---2-0-|-0-0-0-2--|----|
A|-0-0-0-4-2-2-4-2-|-2-4-4-4-4---2---|-------0--|----|
E|---------0-0-0-0-|-0-0-2-2---2-0---|----------|----|


                       PM        PM
e|-----------------|-----------------|-------------|----|
B|-----------------|-5-0---5---------|---3---3-----|----|
G|-2---------------|-4-0---4---------|---2-4-2-4---|----|
D|-2---4---2---4-6-|-6---6-6-4-4-----|-2-0-0-0-0-2-|----|
A|-0-0-0-0-0-0-0-4-|-----4---4-4-0-4-|-2---------0-|----|
E|-----------------|---------2-----2-|-0-----------|----|


e|----------------|-----------------|--------------|---------------|
B|----------------|-----------------|--------------|---------------|
G|----------------|-----------------|--------------|-------2-------|
D|----7-------7-7-|----7------7---7-|--------------|-2-----2-/7-7--|
A|-5----5---------|------4----------|-2---2-0------|-0-----0-------|
E|---------10-----|-5-------9-------|---------2p0--|---------------|


e|------------------|----------------|--------------|-----------|
B|------------------|----------------|--------------|-----------|
G|------------------|----------------|--------------|-2---------|
D|---7------7-7---7-|-----7----7-----|-------2------|-2-/7-7----|
A|-5---5------------|-4----------2-2-|-0-----0------|-0---------|
E|-------10-----5---|---9------------|---2p0--------|-----------|


   ~                        ~                                   ~~
e|-5----5---5-7b9r==7p5---7p5---12b14r==12b14--12b14r=12p10-12p10----------12---|
B|----7---7-------------7------------------------------------------12b14--------|
G|------------------------------------------------------------------------------|
D|------------------------------------------------------------------------------|
A|------------------------------------------------------------------------------|
E|------------------------------------------------------------------------------|


                        ~~                      ~~
e|-----------------------------|---------------------------5-----5-----5-|
B|-12b14r==12p10----12p10--10\-|-----------------------5h7---5h7---5h7---|
G|---------------11------------|---------------11----6-------------------|
D|-----------------------------|--/9--7-----7----------------------------|
A|-----------------------------|---------9-------------------------------|
E|-----------------------------|-----------------------------------------|


e|-12p9----12p9----12p9----12p9----12p9---|
B|------10------10------10------10------0-|
G|----------------------------------------|
D|----------------------------------------|
A|----------------------------------------|
E|----------------------------------------|


e|-------14-----14-------14-------14-------------|
B|-14h17-----17----14h17----14h17----14-17b19----|
G|-----------------------------------------------|
D|-----------------------------------------------|
A|-----------------------------------------------|
E|-----------------------------------------------|


                                 ~~                      ~~
e|-14--14-----17p=14---------------------------------------------------------------|
B|---------17--------17--17p=14-------------------14h15p14----14-------14----14h15-|
G|------------------------------16--16--14h16--16----------------14h16----14-------|
D|---------------------------------------------------------------------------------|
A|---------------------------------------------------------------------------------|
E|---------------------------------------------------------------------------------|


    ~~                                           ~~
e|--------------------------------------------------------------||----|
B|-14--14---------14----14h15p14----------------------------10-o||----|
G|----------14h16----16----------16p14----16p14-14---14---7h=9--||----|
D|-------------------------------------16-----------------------||----|
A|-------------------------------------------------------------o||----|
E|--------------------------------------------------------------||----|


                                ~~
e|------------------------------------------------------14---------------------------------------------|
B|-17-----17-----17-----17-----17--------------------14----17p14h17p14h17p14h17p14---------------------|
G|-16b18--16b18--16b18--16b18r=16---14----14-16b18---------------------------------16b18r16p14-----14--|
D|-------------------------------------16------------------------------------------------------16------|
A|-----------------------------------------------------------------------------------------------------|
E|-----------------------------------------------------------------------------------------------------|


e|-------------------------------------------------------------------------------------------------------|
B|-------------------------------------------------------------------------------------------------------|
G|14------------------------------------------------------------------------------------14-14-14-14-16b18|
D|---16-14-14------------------14--14-14------14-14-14-----14-14-14-14-----14-14-14-/16------------------|
A|------------14-12-14-12--/16-----------/16-----------/16-------------/16-------------------------------|
E|-------------------------------------------------------------------------------------------------------|


e|----14----------------14----------------14-------------|
B|-14----17p14-------14----17p14-------14----17p14-------|
G|-------------16b18-------------16b18-------------16b18-|
D|-------------------------------------------------------|
A|-------------------------------------------------------|
E|-------------------------------------------------------|


e|----14----------------14----|-------------14---------------|
B|-14----17p14-------14----17p|=14-------14----17p14---------|
G|-------------16b18----------|----16b18-------------16b18---|
D|----------------------------|------------------------------|
A|----------------------------|------------------------------|
E|----------------------------|------------------------------|


        ~~       ~~                                  ~~                               ~~
e|--------------------------------------------------------------------------------------------|
B|-17--17-15p14---------------------------------------------------------17--------------------|
G|--------------14--14-------14-16-16b17r=16p14-----14--16-14h16-16b17-----16b17r=16-14-------|
D|---------------------14h16--------------------16----------------------------------------16--|
A|--------------------------------------------------------------------------------------------|
E|--------------------------------------------------------------------------------------------|


                                                                      ~~
e|----------------------------------------------------17-16-14-16-17----------------------17-17--------|
B|----------------------------------------------14-14----------------14---17-14-17-17b19--------17b19--|
G|------------------------------------14-16b18---------------------------------------------------------|
D|-14------------------14-16----14-16------------------------------------------------------------------|
A|----14-12-14-12--/16-------16------------------------------------------------------------------------|
E|-----------------------------------------------------------------------------------------------------|


e|-------17----17\---||----|
B|-17b19r===17-17\---||----|
G|-------------------||----|
D|-------------------||----|
A|-------------------||----|
E|-------------------||----|




************************************

| h  Hammer-on
| p  Pull-off
| r  Release
| b  Bend
| /  Slide up
| \  Slide down
| =  Hold

************************************

            
            
Suggest correction
Creating personal tab
Creating personal tab
You can edit any tab online and save it as your Personal.

You can edit, replace or remove any tab part or add personal notes – all changes will be seen only by you.

Personal tabs can be accessed anytime from any device, even offline.
Learn more »
comments
print report bad tab
7 comments total. Showing first comments.
+2 reply
Onlyoline54 10 Dec 30, 2004 07:00 PM

You should put lyrics on this so that its easier to read.

0 reply
flying_v_dude 10 Jan 18, 2006 08:02 AM

no where near

-2 reply
Philie16 10 Jul 16, 2007 07:32 AM

The main riff is completely off

guest
Wanna post a correction for this tab? Suggest correction