Oops, an error
Loading. Please wait.

Dancing In The Moonlight bass

version 4
version 4

Whole song

Interactive

8,226 views 3 this week
2 commentsread comments
1 2 3 4 5
x 7
add to favorites
×
Save as Personal and add changes to this tab that will be seen only by you. Learn more ›
×
You can save this tab as Personal to edit and correct it or add notes. All changes will be seen only by you. Learn more »
launch autoscroll
font size
0
reset
guitar tuner
backing track
0:00
0:00
edit
Autoscroll
slow
fast
+/-
esc
set tempo
stop
Author
                    SONG IS PLAY WITH A PICK UP AND DOWN STROKES

G|-----------------------------------------|     |----------|
D|-----------------------------------------|     |----------|
A|----55-(7)-7r-5-0-5r7r00-55-(3)3r-0-3r---|     |----------| PAUSE THEN
E|-77-----------------------------------5-3|X2   |-33333333-|


 if you can  put a open(D)with each hammer on LIKE 0h5h6 with them all
G|-----------------------------------------------|     |----------|
D|-after each hammer on  ring it or  pause it----|     |----------|
A|-6H7-7-7-77--4h5-5-5-55-2h3-3-3-33-------------|     |----------| PAUSE
E|-----------------------------------2h3-3-3-33--|X6   |-33333333-|


G|-----------------------------------------------|     |----------|
D|-after each h|ammer on  ring it or  pause it---|     |----------|
A|-6H7-7-7-77--4h5-5-5-55-2h3-3-3-33-------------|     |----------| PAUSE
E|-----------------------------------2h3-3-3-33--|X6   |-33333333-|


G|-----------------------------------------|     |----------|
D|-----------------------------------------|     |----------|
A|----55-(7)-7r-5-0-5r7r00-55-(3)3r-0-3r---|     |----------| PAUSE THEN
E|-77-----------------------------------5-3|X4   |-33333333-|

    IN THE SOLO  TO THE END
G|-----------------------------------------------|
D|-after each h|ammer on  ring it or  pause it---|
A|-6H7-7-7-77--4h5-5-5-55-2h3-3-3-33-------------|
E|-----------------------------------2h3-3-3-33--|X6
Suggest correction
Creating personal tab
Creating personal tab
You can edit any tab online and save it as your Personal.

You can edit, replace or remove any tab part or add personal notes – all changes will be seen only by you.

Personal tabs can be accessed anytime from any device, even offline.
Learn more »
comments
print report bad tab
2 comments total.
-2 reply
DuffMckagan\m/ 10 Aug 12, 2012 02:48 AM

This tab sucks man

0 reply
robotfrom94 314 Apr 17, 2015 05:17 AM

the majority of it is right, but misses out a lot of variations during the last chorus/solo parts

guest
You may want to rate the tab now too:
select rating
Wanna post a correction for this tab? Suggest correction