Oops, an error
Loading. Please wait.

Dedication bass

version 1
version 1

Whole song

Interactive

139 views 1 this week
no commentswrite comment
1 2 3 4 5
3 more votes to show rating
add to favorites
×
Save as Personal and add changes to this tab that will be seen only by you. Learn more ›
×
You can save this tab as Personal to edit and correct it or add notes. All changes will be seen only by you. Learn more »
launch autoscroll
font size
0
reset
guitar tuner
backing track
0:00
0:00
edit
Autoscroll
slow
fast
+/-
esc
set tempo
stop
------------------------------------------------------------------------------
                          Dedication - Thin Lizzy
------------------------------------------------------------------------------

Tabbed by: ChrisT

From the Album: Dedication: The Very Best Of Thin Lizzy (1991)

Tuning: Standard

Intro
G|----------------------------------------------------------------------|
D|---4------------------------------------------------------------------|
A|---2-------------------------------6----------------------------------|
E|-----------------------------------4----------------------------------|

G|---4---------------6--------------------------------------------------|
D|---2---------------4--------------------------------------------------|
A|----------------------------------------------------------------------|
E|----------------------------------------------------------------12\---|

G|----------------------------------------------------------------------|
D|----------------------------------------------------------------------|
A|---2-2-2-2-2-2-2-2-2-2-2-2-2-2-2-2------------------------------------|
E|-----------------------------------4-4-4-4-4-4-4-4-4-4-4-4-4-4-4-4----|

G|--------------------------------------|
D|--------------------------------------|
A|--------------------------------------|
E|---0-0-0-0-0-0-0-0-2-2-2-2-2-2-2-2----|

G|-----4---3-------4---3-----4-3-------4---3-------4---3-----4-3--------|
D|---6---6---4\--6---6---4-6-----4---6---6---4\--6---6---4-6-----4------|
A|----------------------------------------------------------------------|
E|----------------------------------------------------------------------|

Verse
G|----------------------------------------------------------------------|
D|----------------------------------------------------------------------|
A|---2-2-2-2-2-2-2-2-2-2-2-2-2-2-2-2------------------------------------|
E|-----------------------------------4-4-4-4-4-4-4-4-4-4-4-4-4-4-4-4----|

G|----------------------------------------------------------------------|
D|----------------------------------------------------------------------|
A|-----------------------------------2-2-2-2-2-2-2-2-2-2-2-2-2-2-2-2----|
E|---0-0-0-0-0-0-0-0-2-2-2-2-2-2-2-2------------------------------------|

G|----------------------------------------------------------------------|
D|----------------------------------------------------------------------|
A|---2-2-2-2-2-2-2-2-2-2-2-2-2-2-2-2------------------------------------|
E|-----------------------------------4-4-4-4-4-4-4-4-4-4-4-4-4-4-4-4----|

G|----------------------------------------------------------------------|
D|-----------------------------------------------4-4-2-2-1-1------------|
A|-----------------------------------2-2-2-2-2-2-------------4-4-2-2----|
E|---0-0-0-0-0-0-0-0-2-2-2-2-2-2-2-2------------------------------------|

Chorus
G|----------------------------------------------------------------------|
D|----------------------------------------------------------------------|
A|----------------------------------------------------------------------|
E|---4-4-4-4-4-4-4-4-4-4-4-4-4-4-4-4-2-2-2-2-2-2-2-2-2-2-2-2-2-2-2-2----|

G|----------------------------------------------------------------------|
D|----------------------------------------------------------------------|
A|-------------------6-6-6-6-4-4-4-4------------------------------------|
E|---0-0-0-0-0-0-0-0-----------------7-7-7-7-7-7-7-7-7-7-7-7-7-7-7-7----|

G|-----4---3-------4---3-----4-3-------4---3-------4---3-----4-3--------|
D|---6---6---4\--6---6---4-6-----4---6---6---4\--6---6---4-6-----4------|
A|----------------------------------------------------------------------|
E|----------------------------------------------------------------------|

Verse
G|----------------------------------------------------------------------|
D|----------------------------------------------------------------------|
A|---2-2-2-2-2-2-2-2-2-2-2-2-2-2-2-2------------------------------------|
E|-----------------------------------4-4-4-4-4-4-4-4-4-4-4-4-4-4-4-4----|

G|----------------------------------------------------------------------|
D|----------------------------------------------------------------------|
A|-----------------------------------2-2-2-2-2-2-2-2-2-2-2-2-2-2-2-2----|
E|---0-0-0-0-0-0-0-0-2-2-2-2-2-2-2-2------------------------------------|

G|----------------------------------------------------------------------|
D|----------------------------------------------------------------------|
A|---2-2-2-2-2-2-2-2-2-2-2-2-2-2-2-2------------------------------------|
E|-----------------------------------4-4-4-4-4-4-4-4-4-4-4-4-4-4-4-4----|

G|----------------------------------------------------------------------|
D|-----------------------------------------------4-4-2-2-1-1------------|
A|-----------------------------------2-2-2-2-2-2-------------4-4-2-2----|
E|---0-0-0-0-0-0-0-0-2-2-2-2-2-2-2-2------------------------------------|

Chorus
G|----------------------------------------------------------------------|
D|----------------------------------------------------------------------|
A|----------------------------------------------------------------------|
E|---4-4-4-4-4-4-4-4-4-4-4-4-4-4-4-4-2-2-2-2-2-2-2-2-2-2-2-2-2-2-2-2----|

G|----------------------------------------------------------------------|
D|----------------------------------------------------------------------|
A|-------------------6-6-6-6-4-4-4-4------------------------------------|
E|---0-0-0-0-0-0-0-0-----------------7-7-7-7-7-7-7-7-7-7-7-7-7-7-7-7----|

G|-----4---3-------4---3-----4-3-------4---3-------4---3-----4-3--------|
D|---6---6---4\--6---6---4-6-----4---6---6---4\--6---6---4-6-----4------|
A|----------------------------------------------------------------------|
E|----------------------------------------------------------------------|

Guitar Solo
G|----------------------------------------------------------------------|
D|----------------------------------------------------------------------|
A|---2-2-2-2-2-2-2-2-2-2-2-2-2-2-2-2------------------------------------|
E|-----------------------------------4-4-4-4-4-4-4-4-4-4-4-4-4-4-4-4----|

G|----------------------------------------------------------------------|
D|----------------------------------------------------------------------|
A|----------------------------------------------------------------------|
E|---0-0-0-0-0-0-0-0-2-2-2-2-2-2-2-2-4-4-4-4-4-4-4-4-4-4-4-4-4-4-4-4----|

G|----------------------------------------------------------------------|
D|----------------------------------------------------------------------|
A|----------------------------------------------------------------------|
E|---4-4-4-4-4-4-4-4-4-4-4-4-4-4-4-4-2-2-2-2-2-2-2-2-2-2-2-2-2-2-2-2----|

G|----------------------------------------------------------------------|
D|----------------------------------------------------------------------|
A|---7-7-7-7-7-7-7-7-6-6-6-6-4-4-4-4------------------------------------|
E|-----------------------------------7-7-7-7-7-7-7-7-7-7-7-7-7-7-7-7----|

Bridge
G|----------------------------------------------------------------------|
D|----------------------------------------------------------------------|
A|----------------------------------------------------------------------|
E|---7----------------2--------------4-----5-----0-----------------9----|

G|----------------------------------------------------------------------|
D|----------------------------------------------------------------------|
A|----------------------------------------------------------------------|
E|---7----------------2--------------4-----5-----0-----------------9----|

G|----------------------------------------------------------------------|
D|----------------------------------------------------------------------|
A|----------------------------------------------------------------------|
E|---7-7-7-7-7-7-7-7-7-7-7-7-7-7-7-7-7-7-7-7-7-7-7-7-7-7-7-7-7-7-7-7----|

G|----------------------------------------------------------------------|
D|----------------------------------------------------------------------|
A|----------------------------------------------------------------------|
E|---4-4-4-4-4-4-4-4-4-4-4-4-4-4-4-4-4-4-4-4-4-4-4-4-4-4-4-4-4-4-4-4----|

G|----------------------------------------------------------------------|
D|----------------------------------------------------------------------|
A|---2-2-2-2-2-2-2-2-2-2-2-2-2-2-2-2-4-4-4-4-4-4-4-4-4-4-4-4-4-4-4-4----|
E|----------------------------------------------------------------------|

G|----------------------------------------------------------------------|
D|----------------------------------------------------------------------|
A|---6-6-6-6-6-6-6-6-6-6-6-6-6-6-6-6-7-7-7-7-7-7-7-7-7-7-7-7-7-7-7-7----|
E|----------------------------------------------------------------------|

G|----------------------------------------------------------------------|
D|----------------------------------------------------------------------|
A|---9-9-9-9-9-9-9-9-9-9-9-9-9-9-9-9-4-4-4-4-4-4-4-4-4-4-4-4-4-4-4-4----|
E|----------------------------------------------------------------------|

G|--------------------------------------|
D|--------------------------------------|
A|---4-4-4-4-4-4-4-4-4-4-4-4-4-4-4-4----|
E|--------------------------------------|

Outro Chorus
G|----------------------------------------------------------------------|
D|o---------------------------------------------------------------------|
A|o--2-2-2-2-2-2-2-2-2-2-2-2-2-2-2-2------------------------------------|
E|-----------------------------------4-4-4-4-4-4-4-4-4-4-4-4-4-4-4-4----|

G|----------------------------------------------------------------------|
D|---------------------------------------------------------------------o|
A|-----------------------------------2-2-2-2-2-2-2-2-2-2-2-2-2-2-2-2---o|
E|---0-0-0-0-0-0-0-0-2-2-2-2-2-2-2-2------------------------------------|

G|----------------------------------------------------------------------|
D|----------------------------------------------------------------------|
A|----------------------------------------------------------------------|
E|---4-4-4-4-4-4-4-4-4-4-4-4-4-4-4-4-2-2-2-2-2-2-2-2-2-2-2-2-2-2-2-2----|

G|----------------------------------------------------------------------|
D|----------------------------------------------------------------------|
A|-------------------6-6-6-6-4-4-4-4------------------------------------|
E|---0-0-0-0-0-0-0-0-----------------7-7-7-7-7-7-7-7-7-7-7-7-7-7-7-7----|



Suggest correction
Creating personal tab
Creating personal tab
You can edit any tab online and save it as your Personal.

You can edit, replace or remove any tab part or add personal notes – all changes will be seen only by you.

Personal tabs can be accessed anytime from any device, even offline.
Learn more »
Give kudos to tab author, rate the tab!
1 2 3 4 5
comments
print report bad tab
guest
You may want to rate the tab now too:
select rating
Wanna post a correction for this tab? Suggest correction