Oops, an error
Loading. Please wait.

Dont Believe A Word bass

version 1
version 1

Whole song

Interactive

22,480 views 27 this week
6 commentsread comments
1 2 3 4 5
x 3
add to favorites
×
Save as Personal and add changes to this tab that will be seen only by you. Learn more ›
×
You can save this tab as Personal to edit and correct it or add notes. All changes will be seen only by you. Learn more »
launch autoscroll
font size
0
reset
guitar tuner
backing track
0:00
0:00
edit
Autoscroll
slow
fast
+/-
esc
set tempo
stop
Author
Difficulty
Thin Lizzy
Don't Believe a Word

Intro:
G|----------------------------|
D|----------------------------|
A|-------------h--------------|
E|-4-44-44-44-03-4-44-44-44---|

G|------|
D|------|
A|------|
E|--4~--|

Verse:
G|-------------------------------------|  \
D|-------------------------------------|   |
A|-----------------4-44-44-44-44-------|   |
E|-4-44-44-44-44-44-------------2~-----|   |
                                           | Play this 
G|------------------------|                | Twice. 
D|------------------------|                |   
A|-----------4-44-22-2----|                |
E|-4-44-22-0~---------2~--|               /

G|-------------------------------------------|
D|----------------------------4--------------|
A|-6-66-66-66-66-66-4-44-44-67-764-----------|
E|--------------------------------44-44444---|

G|------------------------|
D|------------------------|
A|-----------4-44-22-2----|
E|-4-44-22-0~---------2~--|

Solo:
G|-------------------------------------|
D|-------------------------------------|
A|-----------------4-44-44-44-44-------|
E|-4-44-44-44-44-44-------------2~-----|

G|------------------------|
D|------------------------|
A|-----------4-44-22-2----|
E|-4-44-22-0~---------2~--|

G|-------------------------------|
D|-------------------------------|
A|------------467-4-44-44-44-----|
E|-4-44-44-467---------------2~--|

G|------------------------|
D|------------------------|
A|-----------4-44-22-2----|
E|-4-44-22-0~---------2~--|

Outro:
G|------------|
D|-/7-5-------|
A|-----7-5\---|
E|------------|

And that is everything you need to play this song!

            
            
Suggest correction
Creating personal tab
Creating personal tab
You can edit any tab online and save it as your Personal.

You can edit, replace or remove any tab part or add personal notes – all changes will be seen only by you.

Personal tabs can be accessed anytime from any device, even offline.
Learn more »
Give kudos to tab author, rate the tab!
1 2 3 4 5
comments
print report bad tab
6 comments total. Showing first comments.
0 reply
mattydread 2,677 Jan 08, 2008 11:06 AM

ur bass is tuned a semi tone high, the main riff is a minor (E5)

0 reply
iGamble 30 May 29, 2008 05:09 AM

its depends what versions ur working off
it seams that most of the live stuff is semi tone lower than studio

0 reply
timhass 31 Dec 08, 2008 06:43 AM

in the intro it shud be

-4-44-44-44-44-44-44-44-2

guest
You may want to rate the tab now too:
select rating
Wanna post a correction for this tab? Suggest correction