Oops, an error
Loading. Please wait.

Dont Believe A Word Tab

version 2
version 2

Whole song

  • This is a precise bass tab with every riff, and ti... Show more

Interactive

34 views 3 this week
no commentswrite comment
1 2 3 4 5
3 more votes to show rating
add to favorites
launch autoscroll
font size
0
reset
how to read this tab
guitar tuner
Autoscroll
slow
fast
+/-
esc
set tempo
stop
Help us to improve Ultimate-Guitar.com Take our survey!
×
Author
Difficulty
Tuning
intermediate
D# G# C# F# A# D#
About this tab version
This is a precise bass tab with every riff, and timing, everyone needs thin lizzy. Was this info helpful? Yes No
Don't believe me if I tell you
Not a word of this is true
Don't believe me if I tell you
Especially if I tell you that I'm in love with you

Don't believe me if I tell you
That I wrote this song for you
There just might be some other silly pretty girl
I'm singing it to

Don't believe a word
For words are so easily spoken
And your heart is just like that promise
Made to be broken

Don't believe a word
'Cause words can tell lies
And lies are no comfort
When there's tear in your eyes

Don't believe me if I tell you
Not a word of this is true
Don't believe me if I tell you
Especially if I tell you that I'm in love with you

Don't believe a word
No Don't believe a word
Don't believe it, don't believe it
Not a single word
Hey, don't

ARTIST: Thin Lizzy
LENGTH: 2:21 (MAXIMUM DIFFICULTY LEVEL)
TUNING: E Flat (Eb Ab Db Gb Bb eb)
 Tab By Fuchead    
               
    ''''  '''' 
eb|-----|-----|
Bb|-----|-----|
Gb|-----|-----|
Db|-----|-----|
Ab|-----|-----|
Eb|-----|-----|



[Intro] (0:02 - 0:16)
                                                       
                                                       
     '           '             '           '           
eb|---------------------------------------------------|
Bb|---------------------------------------------------|
Gb|---------------------------------------------------|
Db|---------------------------------------------------|
Ab|------------------------------------------------0--|
Eb|---------------------------------------------------|


                                                         
                                                         
     '     '     '     '        '     '     '     '      
eb|--------------------------|--------------------------|
Bb|--------------------------|--------------------------|
Gb|--------------------------|--------------------------|
Db|--------------------------|--------------------------|
Ab|----0-0---0-0---0-0---0-0-|----0-0---0-0---0-0---0-0-|
Eb|--------------------------|--------------------------|


                                                         
                                                         
     '     '     '     '        '     '     '     '      
eb|--------------------------|--------------------------|
Bb|--------------------------|--------------------------|
Gb|--------------------------|--------------------------|
Db|--------------------------|--------------------------|
Ab|----0-0---0-0---0-0---0-0-|----0-0---0-0---0-0---0-0-|
Eb|--------------------------|--------------------------|


                                                         
                                                         
     '     '     '     '        '     '     '     '      
eb|--------------------------|--------------------------|
Bb|--------------------------|--------------------------|
Gb|--------------------------|--------------------------|
Db|--------------------------|--------------------------|
Ab|----0-0---0-0---0-0---0-0-|----0-0---0-0---0-0---0-0-|
Eb|--------------------------|--------------------------|


                                    
                                    
     '     '     '     '       '''' 
eb|--------------------------|-----|
Bb|--------------------------|-----|
Gb|--------------------------|-----|
Db|--------------------------|-----|
Ab|----0-0---0-0---0-0---0-0-|-----|
Eb|--------------------------|-----|



[Verse] (0:16 - 0:30)
                                                       
                                                       
     '           '             '           '           
eb|---------------------------------------------------|
Bb|---------------------------------------------------|
Gb|---------------------------------------------------|
Db|---------------------------------------------------|
Ab|------------------------------------------------0--|
Eb|---------------------------------------------------|


                                                         
                                                         
     '     '     '     '        '     '     '     '      
eb|--------------------------|--------------------------|
Bb|--------------------------|--------------------------|
Gb|--------------------------|--------------------------|
Db|--------------------------|--------------------------|
Ab|----0-0---0-0---0-0---0-0-|----0-0---0-0---0-0---3-5-|
Eb|--------------------------|--------------------------|


                                                              
                                                              
     '       '     '       '         '     '     '     '      
eb|-------------------------------|--------------------------|
Bb|-------------------------------|--------------------------|
Gb|-------------------------------|--------------------------|
Db|-------------------------------|--------------------------|
Ab|----5---5---5-5-----5-5--------|--------------------------|
Eb|--------------------------3----|----3-3---3-3---3-3---3-5-|


                                                              
                                                              
     '       '     '       '         '     '     '     '      
eb|-------------------------------|--------------------------|
Bb|-------------------------------|--------------------------|
Gb|-------------------------------|--------------------------|
Db|-------------------------------|--------------------------|
Ab|-------------------------------|------------------------5-|
Eb|----5---5---5-3-----3-3---1----|----1-1---1-1---1-1---1---|


                                         
                                         
     '       '     '       '        '''' 
eb|-------------------------------|-----|
Bb|-------------------------------|-----|
Gb|-------------------------------|-----|
Db|-------------------------------|-----|
Ab|----5---5---5-3-----3-3--------|-----|
Eb|--------------------------3----|-----|



[Verse] (0:30 - 0:44)
                                                       
                                                       
     '           '           '             '           
eb|---------------------------------------------------|
Bb|---------------------------------------------------|
Gb|---------------------------------------------------|
Db|---------------------------------------------------|
Ab|------------------------------------------------0--|
Eb|---------------------------------------------------|


                                                         
                                                         
     '     '     '     '        '     '     '     '      
eb|--------------------------|--------------------------|
Bb|--------------------------|--------------------------|
Gb|--------------------------|--------------------------|
Db|--------------------------|--------------------------|
Ab|----0-0---0-0---0-0---0-0-|----0-0---0-0---0-0---3-5-|
Eb|--------------------------|--------------------------|


                                                              
                                                              
     '       '     '       '         '     '     '     '      
eb|-------------------------------|--------------------------|
Bb|-------------------------------|--------------------------|
Gb|-------------------------------|--------------------------|
Db|-------------------------------|--------------------------|
Ab|----5---5---5-5-----5-5--------|--------------------------|
Eb|--------------------------3----|----3-3---3-3---3-3---3-5-|


                                                              
                                                              
     '       '     '       '         '     '     '     '      
eb|-------------------------------|--------------------------|
Bb|-------------------------------|--------------------------|
Gb|-------------------------------|--------------------------|
Db|-------------------------------|--------------------------|
Ab|-------------------------------|------------------------5-|
Eb|----5---5---5-3-----3-3---1----|----1-1---1-1---1-1---1---|


                                         
                                         
     '       '     '       '        '''' 
eb|-------------------------------|-----|
Bb|-------------------------------|-----|
Gb|-------------------------------|-----|
Db|-------------------------------|-----|
Ab|----5---5---5-3-----3-3--------|-----|
Eb|--------------------------3----|-----|



[Chorus] (0:44 - 0:56)
                                                                   
                                                                   
     '     '       '     '       '       '         '       '       
eb|---------------------------|-----------------------------------|
Bb|---------------------------|-----------------------------------|
Gb|---------------------------|-----------------------------------|
Db|---------------------------|-----------------------------------|
Ab|------------------------7--|--7---7-----7-7-----7---7---7---7--|
Eb|---------------------------|-----------------------------------|


                                                                           
                                                                           
     '       '         '       '         '       '         '       '       
eb|-----------------------------------|-----------------------------------|
Bb|-----------------------------------|-----------------------------------|
Gb|-----------------------------------|-----------------------------------|
Db|-----------------------------------|-----------------------------------|
Ab|--7---7-----7-7-----0---5-----7-5--|--5---5-----5-5-----5---5---5---5--|
Eb|-----------------------------------|-----------------------------------|


                                                                           
                                                                           
     '       '         '       '         '       '         '       '       
eb|-----------------------------------|-----------------------------------|
Bb|-----------------------------------|-----------------------------------|
Gb|-----------------------------------|-----------------------------------|
Db|-----------------------------------|-----------------------------------|
Ab|--5---5-----5-5-----0---3---5---5--|--5---5-----5-5-----5---5---5---5--|
Eb|-----------------------------------|-----------------------------------|


                                       
                                       
     '       '         '       '       
eb|-----------------------------------|
Bb|-----------------------------------|
Gb|-----------------------------------|
Db|-----------------------------------|
Ab|--5---5-----5-5-----5---5---5---0--|
Eb|-----------------------------------|


                                             
                                             
     '         '         '         '         
eb|-----------------------------------------|
Bb|-----------------------------------------|
Gb|-----------------------------------------|
Db|-----------------------------------------|
Ab|--0---0-----0---0-----0---0--------------|
Eb|-----------------------------------------|



[Solo] (0:56 - 1:24)
                                                                         
                                                                         
     '         '         '         '           '     '       '     '     
eb|-----------------------------------------|---------------------------|
Bb|-----------------------------------------|---------------------------|
Gb|-----------------------------------------|---------------------------|
Db|-----------------------------------------|---------------------------|
Ab|--------------------------------0---0----|------------------------0--|
Eb|-----------------------------------------|---------------------------|


                                                                           
                                                                           
     '       '         '       '         '       '         '       '       
eb|-----------------------------------|-----------------------------------|
Bb|-----------------------------------|-----------------------------------|
Gb|-----------------------------------|-----------------------------------|
Db|-----------------------------------|-----------------------------------|
Ab|--0---0-----0-0-----0---0-----0-0--|--0---0-----0-0-----0---0---3---5--|
Eb|-----------------------------------|-----------------------------------|


                                                                       
                                                                       
     '       '       '     '         '       '         '       '       
eb|-------------------------------|-----------------------------------|
Bb|-------------------------------|-----------------------------------|
Gb|-------------------------------|-----------------------------------|
Db|-------------------------------|-----------------------------------|
Ab|--5---5---5-3-----3-3----------|-----------------------------------|
Eb|--------------------------3----|--3---3-----3-3-----3---3---3---5--|


                                                                       
                                                                       
     '       '       '     '         '       '         '       '       
eb|-------------------------------|-----------------------------------|
Bb|-------------------------------|-----------------------------------|
Gb|-------------------------------|-----------------------------------|
Db|-------------------------------|-----------------------------------|
Ab|-------------------------------|--------------------------------5--|
Eb|--5---5---5-3-----3-3-----1----|--1---1-----1-1-----1---1---1------|


                                                               
                                                               
     '       '       '     '         '     '     '       '     
eb|-------------------------------|---------------------------|
Bb|-------------------------------|---------------------------|
Gb|-------------------------------|---------------------------|
Db|-------------------------------|---------------------------|
Ab|--5---5---5-3-----3-3----------|------------------------0--|
Eb|--------------------------3----|---------------------------|


                                                                           
                                                                           
     '       '         '       '         '       '         '       '       
eb|-----------------------------------|-----------------------------------|
Bb|-----------------------------------|-----------------------------------|
Gb|-----------------------------------|-----------------------------------|
Db|-----------------------------------|-----------------------------------|
Ab|--0---0-----0-0-----0---0---0---0--|--0---0-----0-0-----0---0---3---5--|
Eb|-----------------------------------|-----------------------------------|


                                                                   
                                                                   
     '       '         '       '          '     '     '     '      
eb|------------------------------------|--------------------------|
Bb|------------------------------------|--------------------------|
Gb|------------------------------------|--------------------------|
Db|------------------------------------|--------------------------|
Ab|--5---5-----5-3-----3---3-----------|--------------------------|
Eb|----------------------------3-----3-|--3---3-3---3-3---3-5---5-|


                                                         
                                                         
     '     '     '     '        '     '     '     '      
eb|--------------------------|--------------------------|
Bb|--------------------------|--------------------------|
Gb|--------------------------|--------------------------|
Db|--------------------------|--------------------------|
Ab|--------------------------|--------------------5---5-|
Eb|--5---5-7---7-7---8-----8-|--8---8-8---8-8---8-------|


                                   
                                   
     '     '     '     '      '''' 
eb|-------------------------|-----|
Bb|-------------------------|-----|
Gb|-------------------------|-----|
Db|-------------------------|-----|
Ab|--5---5-3---3-3----------|-----|
Eb|------------------3------|-----|



[Chorus] (1:24 - 1:38)
                                                         
                                                         
     '     '     '     '        '     '     '     '      
eb|--------------------------|--------------------------|
Bb|--------------------------|--------------------------|
Gb|--------------------------|--------------------------|
Db|--------------------------|--------------------------|
Ab|--------------------7---7-|--7---7-7---7-7---7-7---7-|
Eb|--------------------------|--------------------------|


                                                         
                                                         
     '     '     '     '        '     '     '     '      
eb|--------------------------|--------------------------|
Bb|--------------------------|--------------------------|
Gb|--------------------------|--------------------------|
Db|--------------------------|--------------------------|
Ab|--7---7-7---0-5---7-5---5-|--5---5-5---5-5---5-5---5-|
Eb|--------------------------|--------------------------|


                                                         
                                                         
     '     '     '     '        '     '     '     '      
eb|--------------------------|--------------------------|
Bb|--------------------------|--------------------------|
Gb|--------------------------|--------------------------|
Db|--------------------------|------------------------5-|
Ab|--5---5-5---0-3---5-5---5-|--5---5-5---5-5---7-8-----|
Eb|--------------------------|--------------------------|


                                                              
                                                              
     '     '     '     '        '     '     '     '      '''' 
eb|--------------------------|-------------------------|-----|
Bb|--------------------------|-------------------------|-----|
Gb|------5-------------------|-------------------------|-----|
Db|--7-----7---5-------------|-------------------------|-----|
Ab|--------------7---5-0---0-|--0---0-0---0-0---0-0----|-----|
Eb|--------------------------|-------------------------|-----|



[Verse] (1:38 - 1:52)
                                                         
                                                         
     '     '     '     '        '     '     '     '      
eb|--------------------------|--------------------------|
Bb|--------------------------|--------------------------|
Gb|--------------------------|--------------------------|
Db|--------------------------|--------------------------|
Ab|--------------------0---0-|--0---0-0---0-0---0-0---0-|
Eb|--------------------------|--------------------------|


                                                         
                                                         
     '     '     '     '        '     '     '     '      
eb|--------------------------|--------------------------|
Bb|--------------------------|--------------------------|
Gb|--------------------------|--------------------------|
Db|--------------------------|--------------------------|
Ab|--0---0-0---0-0---3-5---5-|--5---5-5---5-5-----------|
Eb|--------------------------|------------------3-----3-|


                                                         
                                                         
     '     '     '     '        '     '     '     '      
eb|--------------------------|--------------------------|
Bb|--------------------------|--------------------------|
Gb|--------------------------|--------------------------|
Db|--------------------------|--------------------------|
Ab|--------------------------|--------------------------|
Eb|--3---3-3---3-3---3-5---5-|--5---5-3---3-3---1-----1-|


                                                              
                                                              
     '     '     '     '        '     '     '     '      '''' 
eb|--------------------------|-------------------------|-----|
Bb|--------------------------|-------------------------|-----|
Gb|--------------------------|-------------------------|-----|
Db|--------------------------|-------------------------|-----|
Ab|--------------------5---5-|--5---5-3---3-3----------|-----|
Eb|--1---1-1---1-1---1-------|------------------3------|-----|



[Transition] (1:52 - 2:05)
                                                 
                                                 
     '         '           '         '           
eb|---------------------------------------------|
Bb|---------------------------------------------|
Gb|---------------------------------------------|
Db|---------------------------------------------|
Ab|---------------------------------------------|
Eb|--------------------------------5-----5---5--|


                                                                   
                                                                   
     '       '       '         '          '     '     '     '      
eb|------------------------------------|--------------------------|
Bb|------------------------------------|--------------------------|
Gb|------------------------------------|--------------------------|
Db|------------------------------------|--------------------------|
Ab|------------------------------------|--------------------------|
Eb|------5-3-----3-3-----1-------1---1-|----1-1---1-1---1-5---5-5-|


                            
                            
     '     '   '     '      
eb|------------------------|
Bb|------------------------|
Gb|------------------------|
Db|------------------------|
Ab|------------------------|
Eb|----5-3---3-3---1---1-1-|


                                                             
                                                             
     '             '             '             '             
eb|---------------------------------------------------------|
Bb|---------------------------------------------------------|
Gb|---------------------------------------------------------|
Db|---------------------------------------------------------|
Ab|---------------------------------------------------------|
Eb|----1-----1-------1-----1---------1---5---------5---5----|


                                               
                                               
     '         '         '           '         
eb|-------------------------------------------|
Bb|-------------------------------------------|
Gb|-------------------------------------------|
Db|-------------------------------------------|
Ab|-------------------------------------------|
Eb|----5---3-----3---3-----1-----------1-1----|


                                                             
                                                             
     '             '             '             '             
eb|---------------------------------------------------------|
Bb|---------------------------------------------------------|
Gb|---------------------------------------------------------|
Db|---------------------------------------------------------|
Ab|---------------------------------------------------------|
Eb|----1-----1-------1-----1---------1---5---------5---5----|


                                                      
                                                      
     '           '           '           '            
eb|--------------------------------------------------|
Bb|--------------------------------------------------|
Gb|--------------------------------------------------|
Db|--------------------------------------------------|
Ab|--------------------------------------------------|
Eb|----5---3-------3---3-------1---1---1-------1---1-|


                                       
                                       
     '       '       '         '       
eb|-----------------------------------|
Bb|-----------------------------------|
Gb|-----------------------------------|
Db|-----------------------------------|
Ab|-----------------------------------|
Eb|------1---1------------------------|



[Outro] (2:05 - 2:19)
                                          
                                          
     '       '         '       '          
eb|--------------------------------------|
Bb|--------------------------------------|
Gb|--------------------------------------|
Db|--------------------------------------|
Ab|------------------0-----0-0-----0---7-|
Eb|----------------1---------------------|


                                            
                                            
     '         '       '         '          
eb|----------------------------------------|
Bb|----------------------------------------|
Gb|----------------------------------------|
Db|----------------------------------------|
Ab|--------0-0-----0---0-----0-0-----0---0-|
Eb|----------------------------------------|


                                            
                                            
     '         '       '         '          
eb|----------------------------------------|
Bb|----------------------------------------|
Gb|----------------------------------------|
Db|----------------------------------------|
Ab|--------0-0-----0---0-----0-0-----0---0-|
Eb|----------------------------------------|


                                            
                                            
     '         '       '         '          
eb|----------------------------------------|
Bb|----------------------------------------|
Gb|----------------------------------------|
Db|--------------------------------------7-|
Ab|--------0-0-----0---0-----0-0-----0-----|
Eb|----------------------------------------|


                                                
                                                
     '         '         '         '            
eb|--------------------------------------------|
Bb|--------------------------------------------|
Gb|--------------------------------------------|
Db|----5-----5---------------------------------|
Ab|--------7-----7---5-0-------0---0-----0---0-|
Eb|--------------------------------------------|


                                            
                                            
     '         '       '         '          
eb|----------------------------------------|
Bb|----------------------------------------|
Gb|----------------------------------------|
Db|----------------------------------------|
Ab|--------0-0-----0---0-----0-0-----0---0-|
Eb|----------------------------------------|


                                            
                                            
     '         '       '         '          
eb|----------------------------------------|
Bb|----------------------------------------|
Gb|----------------------------------------|
Db|----------------------------------------|
Ab|--------0-0-----0---0-----0-0-----0---0-|
Eb|----------------------------------------|


                                                 
                                                 
     '         '         '         '        '''' 
eb|---------------------------------------|-----|
Bb|---------------------------------------|-----|
Gb|---------------------------------------|-----|
Db|--------------------7-----5------------|-----|
Ab|--------0-0-------0-----------7--------|-----|
Eb|------------------------------------5--|-----|



[Noguitar] (2:19 - 2:21)
         
         
    '''' 
eb|-----|
Bb|-----|
Gb|-----|
Db|-----|
Ab|-----|
Eb|-----|



************************************

| b  Bend

************************************
Suggest correction
Give kudos to tab author, rate the tab!
1 2 3 4 5
comments
print report bad tab
guest
You may want to rate the tab now too:
select rating
Wanna post a correction for this tab? Suggest correction