Oops, an error
Loading. Please wait.

Emerald bass

version 2
version 2

Whole song

Interactive

13,531 views 15 this week
2 commentsread comments
1 2 3 4 5
x 6
add to favorites
×
Save as Personal and add changes to this tab that will be seen only by you. Learn more ›
×
You can save this tab as Personal to edit and correct it or add notes. All changes will be seen only by you. Learn more »
launch autoscroll
font size
0
reset
guitar tuner
backing track
0:00
0:00
edit
Autoscroll
slow
fast
+/-
esc
set tempo
stop
Author
Difficulty
intermediate
Emerald, Thin Lizzy.

Tune down one Semi-tone from: (E A D G) to (Eb Ab Db Gb)

----------------
Key:           |
> = Slide Up   |
< = Slide Down |
H = Hammer-on  |
P = Pull Off   |
B = Bend       |
V = Vibrato    |
S = Slap       |
P = Pop        |
----------------

Verse:

Gb|----------------------------------------------------------------------------------|
Db|---------------------------------------------------------------222222-------------|
Ab|-----3-2-0----3-----3-2-0---3--------3-2-0-----3-----3-2-0------------------------|
Eb|------------3-----------------3--------------3--------------3---------------------|


Gb|----------------------------------------------------------------------------------|
Db|----------------------------------------------------------------------------------|
Ab|-----3-2-0-----3-----3-2-0---3--------3-2-0-----3-----3-2-0----7777777777777-<-0--|
Eb|-------------3-----------------3--------------3--------------3--------------------|


Chorus:

Gb|----------------------------------------------------------------------------------|
Db|-----5-H-7-7777-5----------------------------------------------------5555---5-7---|
Ab|------------------7-5-7-5-3------------------------3333333--5->-7---------7-------|
Eb|-----------------------------555555-3-----33333-5---------------------------------|

Gb|-----5555555----------------------------------------------------------------------|
Db|--------------7-5-7-5---5------------------------------------------5555---5-7-----|
Ab|----------------------7---7-5-7-5-3----------------3333333--5->-7-------7---------|
Eb|------------------------------------3-----33333-5---------------------------------|


Verse:

Gb|-------------------------------------------------------------------------------------|
Db|----------------------------------------------------------------------222222---------|
Ab|-----3-2-0-----3-----3-2-0---3--------3-2-0-----3-----3-2-0--------------------------|
Eb|-------------3-----------------3--------------3------------------3-------------------|


Gb|-------------------------------------------------------------------------------------|
Db|-------------------------------------------------------------------------------------|
Ab|-----3-2-0-----3-----3-2-0---3--------3-2-0-----3-----3-2-0------7777777777777-<-0---|
Eb|-------------3-----------------3--------------3---------------3----------------------|


Chorus:

Gb|--------------------------------------------------------------------------------------|
Db|-----5-H-7-7777-5------------------------------------------------------5555----5-7----|
Ab|-------------------7-5-7-5-3--------------------------3333333--5->-7---------7--------|
Eb|-------------------------------555555-3-----33333-5-----------------------------------|

Gb|-----5555555--------------------------------------------------------------------------|
Db|--------------7-5-7-5---5-------------------------------------------5555----5-7-------|
Ab|----------------------7---7-5-7-5-3----------------3333333--5->-7---------7-----------|
Eb|-------------------------------------3---33333-5--------------------------------------|


Bridge:

Gb|----------------5-------------7-------------5-------------7-------------------|
Db|-----777777777-----777777777-----777777777-----777777777----------------------|
Ab|------------------------------------------------------------------------------|
Eb|------------------------------------------------------------------------------|

Gb|----------------5-------------7-------------5-------------7->-9---------------|
Db|-----777777777-----777777777-----777777777-----777777777----------------------|
Ab|------------------------------------------------------------------------------|
Eb|------------------------------------------------------------------------------|


Before the solo the guitars play in harmony, you could immitate them...
Or improvise from the notes in the chorus.
To immitate the guitars here are the tabs :


Gb|--------------------------------------------------------------------------|
Db|--------9-10-9----9-----------------------9-10-9----9-------14------------|
Ab|-----12--------12---12-10-12-P-10------12--------12---12-10---------------|
Eb|----------------------------------12--------------------------------------|

Gb|--------------------------------------------------------------------------|
Db|-----12-14-15-14-12-14-12----12--------------------------12---------------|
Ab|--------------------------15----15-14-15-14-12--12-14-15----15----12------|
Eb|---------------------------------------------------------------15---------|

Gb|--------------------------------------------------------------------------|
Db|--------9-10-9----9---------------------9-10-9----9-------14--------------|
Ab|-----12--------12---12-10-12-P-10----12--------12---12-10-----------------|
Eb|----------------------------------12--------------------------------------|

Gb|--------------------------------------------------------------------------|
Db|-----12-14-15-14-12-14-12----12---------------------------12--------------|
Ab|--------------------------15----15-14-15-14-12--12-14-15-----15----12-----|
Eb|----------------------------------------------------------------15--------|

Play the chorus during the solo, don't forget you can allways improvise this, and then 
bars of the chorus to finish off.

Hope this helps somebody, cheers for reading it =]

            
            
Suggest correction
Creating personal tab
Creating personal tab
You can edit any tab online and save it as your Personal.

You can edit, replace or remove any tab part or add personal notes – all changes will be seen only by you.

Personal tabs can be accessed anytime from any device, even offline.
Learn more »
comments
print report bad tab
2 comments total.
0 reply
johnny blue 105 Mar 24, 2008 12:52 PM

for the guitar harmony i think the other tab has it more correct

in the bridge i think ur lookin for

E)5555555 then D)7
an
E)55555 then A)3/5
i know what i just put down aint clear at all but hopefully you get what im sayin in it(p.s. tis in ordinary tunein)
i think that sounds a lil better but i could well be wrong

0 reply
dylank69 521 Apr 08, 2008 05:32 PM

shit this tab blows the other one away this is a lot more like the real song good job man

guest
You may want to rate the tab now too:
select rating
Wanna post a correction for this tab? Suggest correction