Oops, an error
Loading. Please wait.

Emerald bass

version 4
version 4

Whole song

Interactive

178 views 3 this week
no commentswrite comment
1 2 3 4 5
2 more votes to show rating
add to favorites
×
Save as Personal and add changes to this tab that will be seen only by you. Learn more ›
×
You can save this tab as Personal to edit and correct it or add notes. All changes will be seen only by you. Learn more »
launch autoscroll
font size
0
reset
guitar tuner
backing track
0:00
0:00
edit
Autoscroll
slow
fast
+/-
esc
set tempo
stop
About this tab version
More precise and accurate. very easy to read. Was this info helpful? Yes No
TITLE: Emerald - Bass
ARTIST: Thin Lizzy
LENGTH: 4:16 (MAXIMUM DIFFICULTY LEVEL)
TUNING: E Flat (Eb Ab Db Gb Bb eb)


    ''''  ''''  ''''
Gb|-----|-----|-----|
Db|-----|-----|-----|
Ab|-----|-----|-----|
Eb|-----|-----|-----|

Riff (0:15 - 0:24)


     ' '   ' '        ' ' ' '    '   ' '   '      ' ' ' '    ' ' ' '
Gb|----------------|----------|----------------|----------|---------|
Db|----------------|----------|----------------|----------|---------|
Ab|------------3-2-|----------|--3---------3-2-|--------3-|---------|
Eb|----------------|--5-----3-|----------------|--5-5-----|--3------|

Riff (0:24 - 0:32)


     ' '   ' '        ' ' ' '    ' '   ' '        '     '     '     '
Gb|----------------|----------|----------------|--------------------------|
Db|----------------|----------|----------------|--------------------------|
Ab|------------3-2-|----------|--3---------3-2-|--------------------------|
Eb|----------------|--5-----3-|----------------|--5-----------------3---0-|


     '     '     '     '
Gb|-------------------------|
Db|-------------------------|
Ab|-------------------------|
Eb|--0-0-0-0-0-0-0-0-0------|

Riff (0:32 - 0:40)


     ' '   ' '        '     '     '     '       '     '     '     '
Gb|----------------|-------------------------|--------------------------|
Db|----------------|-------------------------|--------------------------|
Ab|------------3-2-|-------------------------|--3-3-3-3-3-3-3-3-3-3-3-2-|
Eb|----------------|--5-5-5-5-5-5-5-5-5-3-3--|--------------------------|


     '     '     '     '        '     '     '     '
Gb|--------------------------|-------------------------|
Db|--------------------------|-------------------------|
Ab|--------------------3-3-3-|-------------------------|
Eb|--5-5-5-5-5-5-5-5-5-------|--3---3-3-3-3-3---3------|

Riff (0:40 - 0:51)


     '   ' '   '      '     '     '     '       '     '     '     '
Gb|----------------|-------------------------|--------------------------|
Db|----------------|-------------------------|--------------------------|
Ab|------------3-2-|-------------------------|--3-3-3-3-3-3-3-3-3-3-3-2-|
Eb|----------------|--5---5-5-5-5-5-5-5-3-3--|--------------------------|


     '     '     '     '
Gb|--------------------------|
Db|--------------------------|
Ab|--------------------------|
Eb|--5-5-5-5-5-5-5-5-5-3-3-3-|


      '                 '                 '                 '
Gb|-------------------------------------------------------------------------|
Db|-------------------------------------------------------------------------|
Ab|---------------------------------7-----7-----7-----7-----7-----7-----7---|
Eb|---0-----0-----0-----0-p1------------------------------------------------|


     '     '     '     '
Gb|-------------------------|
Db|-------------------------|
Ab|--7-7-7-7-7-7-7-7-7-7----|
Eb|-------------------------|

Riff (0:51 - 0:58)


       '           '           '           '            '     '     '     '

Gb|--------------------------------------------------|-------------------------|
Db|--3s7---7---7---7---7---7---7---------------------|-------------------------|
Ab|-------------------------------10---7-------------|-------------------------|
Eb|---------------------------------------10---8---5-|--5-5-5-5-5-5-3----------|


       '                       '                       '                       '
Gb|-------------------------------------------------------------------------------------------------|
Db|--------------------------------------------------------------------------------------------5----|
Ab|--------------------------------------------3-------3-------3-------3-------3-----5s7---7--------|
Eb|----3-------3-------3-------3-------5------------------------------------------------------------|


     '     '     '     '
Gb|-------------------------|
Db|--5-5-5-5---5-7----------|
Ab|----------7--------------|
Eb|-------------------------|

Riff (0:58 - 1:06)


      '        '        '        '           '        '        '        '
Gb|--------------------------------------|-------------------------------------|
Db|--10-10-10-10-10-10-10--7-----7-------|-------------------------------------|
Ab|--------------------------10----10--7-|--10--7-----7------------------------|
Eb|--------------------------------------|--------10----10--8--3---------------|


       '                       '                       '                       '
Gb|-------------------------------------------------------------------------------------------------|
Db|--------------------------------------------------------------------------------------------5----|
Ab|--------------------------------------------3-------3-------3-------3-------3-----5s7---7--------|
Eb|----3-------3-------3-------3-------5------------------------------------------------------------|


     '     '     '     '
Gb|-------------------------|
Db|--5-5-5-5---5-7----------|
Ab|----------7--------------|
Eb|-------------------------|

Riff (1:06 - 1:14)


     '   ' '   '      '     '     '     '        '     '     '     '
Gb|----------------|--------------------------|--------------------------|
Db|----------------|--------------------------|--------------------------|
Ab|------------3-2-|--------------------------|--3-3-3-3-3-3-3-3-3-3-3-2-|
Eb|----------------|--5-5-5-5-5-5-5-5-5-3-3-3-|--------------------------|


     '     '     '     '        '     '     '     '
Gb|--------------------------|-------------------------|
Db|--------------------------|-------------------------|
Ab|------------------3-3-3-3-|-------------------------|
Eb|--5-5-5-5-5-5-5-5---------|--3-3-3-3-3-3-3-3-3------|

Riff (1:14 - 1:22)


     '   ' ' '        '     '     '     '        '     '     '     '
Gb|----------------|--------------------------|--------------------------|
Db|----------------|--------------------------|--------------2-2-2-5-5-5-|
Ab|------------3-2-|--------------------------|--3-3-3-5-5-5-------------|
Eb|----------------|--5-5-5-5-5-5-5---5-3-3-3-|--------------------------|


     '     '     '     '        '     '     '     '
Gb|--------------------------|-------------------------|
Db|--------------------------|-------------------------|
Ab|--------------------------|-------------------------|
Eb|--5-5-5-5-5-5-5---5-3-3-3-|--0-0-0-0-0-0-0-0-0-0----|

Riff (1:22 - 1:30)


     '   ' ' '        '     '     '     '        '     '     '     '
Gb|----------------|--------------------------|--------------------------|
Db|----------------|--------------------------|--------------------------|
Ab|------------3-2-|--------------------------|--3-3-3-3-3-3-3-3-3---3-2-|
Eb|----------------|--5-5-5-5-5-5-5-5-5-3-3-3-|--------------------------|


     '     '     '     '        '     '     '     '
Gb|--------------------------|-------------------------|
Db|--------------------------|-------------------------|
Ab|--------------------3-3-3-|-------------------------|
Eb|--5-5-5-5-5-5-5-5-5-------|--3-3-3-3-3-3-3-3-3-3----|

Riff (1:30 - 1:41)


     ' '   ' '        '     '     '     '        '     '     '     '
Gb|----------------|--------------------------|--------------------------|
Db|----------------|--------------------------|--------------2-2-2-5-5-5-|
Ab|------------3-2-|--------------------------|--3-3-3-5-5-5-------------|
Eb|----------------|--5-5-5-5-5-5-5-5-5-3-3-3-|--------------------------|


     '     '     '     '       '     '     '     '
Gb|-------------------------|--------------------------|
Db|-------------------------|--------------------------|
Ab|-------------------------|--------------------------|
Eb|--5-5-5-5-5-5-5-5-5-3-3--|--0-0-0-0-0-0-0-0-0-0-0-0-|


     '     '     '     '
Gb|-------------------------|
Db|-------------------------|
Ab|--7---7-7-7-7-7-7-7-7-7--|
Eb|----0--------------------|

Riff (1:41 - 1:49)


       '           '           '           '            '     '     '     '
Gb|--------------------------------------------------|-------------------------|
Db|--3/7---7---7---7---7---7---7---------------------|-------------------------|
Ab|-------------------------------10---7-------------|-------------------------|
Eb|---------------------------------------10---8---5-|--5-5-5-5-5-5-3----------|


       '                       '                       '                       '
Gb|-------------------------------------------------------------------------------------------------|
Db|--------------------------------------------------------------------------------------------5----|
Ab|--------------------------------------------3-------3-------3-------3-------3-----5s7---7--------|
Eb|----3-------3-------3-------3-------5------------------------------------------------------------|


        '              '              '              '
Gb|-------------------------------------------------------------|
Db|-----5----5----5----5---------5----7-----------7s10---10-----|
Ab|-------------------------7-----------------------------------|
Eb|-------------------------------------------------------------|

Riff (1:49 - 1:57)


      '        '        '        '           '        '        '        '
Gb|--------------------------------------|-------------------------------------|
Db|--10-10-10-10-10-10-10--7-----7-------|-------------------------------------|
Ab|--------------------------10----10--7-|--10--7-----7------------------------|
Eb|--------------------------------------|--------10----10--8--3---------------|


       '                       '                       '                       '
Gb|--------------------------------------|----------------------------------------------------------|
Db|--------------------------------------|-----------------------------------------------------5----|
Ab|--------------------------------------|-----3-------3-------3-------3-------3-----5/7---7--------|
Eb|----3-------3-------3-------3-------5-|----------------------------------------------------------|


     '     '     '     '
Gb|-------------------------|
Db|--5-5-5-5---5-7----------|
Ab|----------7--------------|
Eb|-------------------------|

Riff (1:57 - 2:05)


     '     '     '     '        '        '        '        '
Gb|-------------------------|-------------------------------------|
Db|-------------------------|-------------------------------------|
Ab|-------------------------|------------------------------3-p5---|
Eb|--5-5-5-5-5-5-5-5-5------|---5--5--5--5--5--5--5--5--5---------|


     '     '     '     '        '        '        '        '
Gb|-------------------------|-------------------------------------|
Db|-------------------------|-------------------------------------|
Ab|-------------------------|------------------------------3-p5---|
Eb|--5-5-5-5-5-5-5-5-5------|---5--5--5--5--5--5--5--5--5---------|

Riff (2:05 - 2:13)


     '     '     '     '        '        '        '        '
Gb|-------------------------|-------------------------------------|
Db|-------------------------|-------------------------------------|
Ab|-------------------------|------------------------------3-p5---|
Eb|--5-5-5-5-5-5-5-5-5------|---5--5--5--5--5--5--5--5--5---------|


     '     '     '     '       '     '     '   '
Gb|-------------------------|-----------------------|
Db|-------------------------|-----------------------|
Ab|-------------------------|-----------------------|
Eb|--5-5-5-5-5-5-5-5-5------|--5-5-5-5-5-5-5-5-5-0--|

Noguitar (2:13 - 2:16)


    ''''  '''
Gb|-----|----|
Db|-----|----|
Ab|-----|----|
Eb|-----|----|

Riff (2:16 - 2:25)


     ' ' ' '   '   ' '   '      ' ' ' '   ' ' ' '
Gb|---------|----------------|---------|---------|
Db|---------|----------------|---------|--5---7--|
Ab|---------|------------5-7-|--8------|---------|
Eb|--5------|--0-------------|---------|---------|

Riff (2:25 - 2:34)


     ' ' ' '   '   ' '   '      ' ' ' '   ' ' ' '  ''
Gb|---------|----------------|---------|---------|---|
Db|---------|----------------|---------|--5---7--|---|
Ab|---------|--7---------8-7-|--5------|---------|---|
Eb|--5------|----------------|---------|---------|---|

Riff (2:34 - 2:42)


     '     '     '     '        '     '     '     '
Gb|----------------------5---|--------------------------|
Db|--5-7-7-7-7-7-7-7-7-7---7-|--7-7-7-7-7-7-5---------5-|
Ab|--------------------------|--------------------------|
Eb|--------------------------|--------------------------|


     '     '     '     '        '     '     '     '
Gb|--------------------------|--------------------------|
Db|--5---5-5-5-5-5---5-5-5-5-|--5-5-5-5-5-5-7-----7-7-7-|
Ab|----------------7---------|--------------------------|
Eb|--------------------------|--------------------------|

Riff (2:42 - 2:50)


     '     '     '     '        '     '     '     '
Gb|----------------------5---|----------5---------------|
Db|--7-7-7-7-7-7-7-7-7-7---7-|--7-7-7-7---7-5-5-5-5-5-5-|
Ab|--------------------------|--------------------------|
Eb|--------------------------|--------------------------|


     '     '     '     '        '     '     '     '
Gb|--------------------------|--------------------------|
Db|--5-5-5-5-5-5-5-5-5-5-5-5-|--5-5-5-5-5-5-7-7-7-7-7-7-|
Ab|--------------------------|--------------------------|
Eb|--------------------------|--------------------------|

Riff (2:50 - 2:57)


     '     '     '     '        '     '     '     '
Gb|--------------------------|--------------------------|
Db|--7-7-7-5-5-5-------------|--------------------------|
Ab|--------------7-7-7-5-5-5-|--------------------------|
Eb|--------------------------|--8-8-8-5-5-5-3-3-3-3-3-3-|


     '     '     '     '        '     '     '     '
Gb|--------------------------|--------------------------|
Db|--------------------------|--------------------------|
Ab|--------------------------|--------------------------|
Eb|--3-3-3-3-3-3-3-3-3-3-3-3-|--3-3-3-3-3-3-5-5-5-5-5-5-|

Riff (2:57 - 3:05)


     '     '     '     '        '     '     '     '
Gb|--------------------------|--------------------------|
Db|--------------------------|--------------------------|
Ab|--------3-----------3-----|--5-----------------------|
Eb|--5-5-5---5-5-5-5-5---5-5-|----5-5-5-5-5-3-3-3-3-3-3-|


     '     '     '     '        '     '       '     '
Gb|--------------------------|----------------------------|
Db|--------------------------|----------------------------|
Ab|--------------------2-----|--------2-------------------|
Eb|--3-3-3-3-3-3-3-3-3---3-3-|--3-3-3---3---3-5-5-5-5-5-5-|

Riff (3:05 - 3:13)


     '     '     '     '        '     '     '     '
Gb|--------------------------|--------------------------|
Db|--------------------------|--------------------------|
Ab|--------------------------|--------------------------|
Eb|--5-5-5-5-5-5-5-5-5-5-5-5-|--5-5-5-5-5-5-3-3-3-3-3-3-|


     '     '     '       '        '     '     '     '
Gb|----------------------------|-------------------------|
Db|----------------------------|-------------------------|
Ab|----------------------------|-------------------------|
Eb|--3-3-3-3-3-3-3-3-3---3-3-3-|--3-3-3-3-3-3-5-5-5-5-5--|

Riff (3:13 - 3:21)


     '     '     '     '        '     '     '     '
Gb|--------------------------|----------------------------|
Db|------------------------7-|--7-7-7-7-7-7-7-7-7-7---7-7-|
Ab|--------------------------|----------------------------|
Eb|--------------------------|----------------------------|


     '     '     '     '        '     '     '       '
Gb|--------------------------|----------------------------|
Db|--7-7-7-7-7-7-5-5-5-5-5-5-|--5-5-5-5-5-5---5-5-5-5-5-5-|
Ab|--------------------------|----------------------------|
Eb|--------------------------|----------------------------|


     '     '     '     '
Gb|--------------------------|
Db|--5-5-5-5-5-5-7-7-7-7-7-7-|
Ab|--------------------------|
Eb|--------------------------|

Riff (3:21 - 3:29)


     '     '     '     '        '     '     '     '
Gb|--5-5-5-5-5-5-5-5-5-5-5-5-|--5-5-5-5-5-5-------------|
Db|--------------------------|--------------5-5-5-5-5-5-|
Ab|--------------------------|--------------------------|
Eb|--------------------------|--------------------------|


     '     '     '     '        '     '     '     '
Gb|--------------------------|------------------------5-|
Db|--5-5-5-5---5-5-5---5-5-5-|----5---5---5-7-7-7-7-7---|
Ab|----------7-------7-------|--7---7---7---------------|
Eb|--------------------------|--------------------------|

Riff (3:29 - 3:37)


     '     '     '     '        '     '     '     '
Gb|------5-----5-----5-----5-|------5---5---------------|
Db|--7-7---7-7---7-7---7-7---|--7-7---7---7-7-5-5-5-5-5-|
Ab|--------------------------|--------------------------|
Eb|--------------------------|--------------------------|


     '     '     '     '        '     '     '     '
Gb|--7-------7-----7-----7---|----7-----7---------------|
Db|----5-5-5---5-5---5-5---5-|--5---5-5---5-7-7-7-7-7-7-|
Ab|--------------------------|--------------------------|
Eb|--------------------------|--------------------------|

Riff (3:37 - 3:45)


     '     '     '     '        '     '     '     '
Gb|--------------------------|--------5---------7-------|
Db|--7-7-7-7-7-7-7-7-7-7-7-7-|--7-7-7---7-7-5-5---5-5-5-|
Ab|--------------------------|--------------------------|
Eb|--------------------------|--------------------------|


     '     '     '     '        '     '     '     '
Gb|--------------------------|--------------------------|
Db|--5-5-5-5-5-5-5-5-5-5-5-5-|--5-5-5-5-5-5-7-7-7-7-7-7-|
Ab|--------------------------|--------------------------|
Eb|--------------------------|--------------------------|

Riff (3:45 - 3:52)


      '        '        '        '
Gb|---------------------7--7--7--9--9--9-|
Db|---7--7--7-10-10-10-------------------|
Ab|--------------------------------------|
Eb|--------------------------------------|


          '                             '                             '                             '
Gb|—---9/12---12---12--------12--------12--|-----12--------12--------14--------14-----|
Db|----------------------------------------|------------------------------------------|
Ab|----------------------------------------|------------------------------------------|
Eb|----------------------------------------|------------------------------------------|

                   '
Gb|-----14--------14--------14--------14-----|
Db|------------------------------------------|
Ab|------------------------------------------|
Eb|------------------------------------------|

     '     '     '     '        '     '     '     '
Gb|--0-0-0-0-0-0-0-0-0-0-0-0-|--0-0-0-0-0-0-0-0-0-0-0-0-|
Db|--------------------------|--------------------------|
Ab|--------------------------|--------------------------|
Eb|--------------------------|--------------------------|

Riff (3:52 - 4:00)


      '        '        '        '          '     '     '     '
Gb|--------------------------------------|-------------------------|
Db|---7--7--7--7--7--7--7----------------|-------------------------|
Ab|-----------------------10--7----------|-------------------------|
Eb|-----------------------------10--8--5-|--5-5-5-5-5-5-3----------|


       '                       '                       '                       '
Gb|-------------------------------------------------------------------------------------------------|
Db|--------------------------------------------------------------------------------------------5----|
Ab|--------------------------------------------3-------3-------3-------3-------3-----5/7---7--------|
Eb|----3-------3-------3-------3-------5------------------------------------------------------------|


     '     '     '     '
Gb|-------------------------|
Db|--5-5-5-5---5-7----------|
Ab|----------7--------------|
Eb|-------------------------|

Riff (4:00 - 4:10)


      '        '        '        '           '        '        '        '
Gb|--------------------------------------|-------------------------------------|
Db|--10-10-10-10-10-10-10--7-----7-------|-------------------------------------|
Ab|--------------------------10----10--7-|------7------------------------------|
Eb|--------------------------------------|--10----10--8-10--8--3---------------|


       '                       '                       '                       '
Gb|-------------------------------------------------------------------------------------------------|
Db|--------------------------------------------------------------------------------------------5----|
Ab|--------------------------------------------3-------3-------3-------3-------3-----5/7---7--------|
Eb|----3-------3-------3-------3-------5------------------------------------------------------------|


     '     '     '     '      ''''
Gb|-------------------------|-----|
Db|--5-5-5-5---5------------|-----|
Ab|----------7--------------|-----|
Eb|--------------5----------|-----|

Noguitar (4:10 - 4:16)


    ''''  ''''  ''''
Gb|-----|-----|-----|
Db|-----|-----|-----|
Ab|-----|-----|-----|
Eb|-----|-----|-----|


***********************************
| /   Slide up
| \   Slide down
| h   Hummer-on
| p   Pull-off

            
            
Suggest correction
Creating personal tab
Creating personal tab
You can edit any tab online and save it as your Personal.

You can edit, replace or remove any tab part or add personal notes – all changes will be seen only by you.

Personal tabs can be accessed anytime from any device, even offline.
Learn more »
Give kudos to tab author, rate the tab!
1 2 3 4 5
comments
print report bad tab
guest
You may want to rate the tab now too:
select rating
Wanna post a correction for this tab? Suggest correction