Oops, an error
Loading. Please wait.

Jailbreak Bass Tab

version 1
version 1

Whole song

Interactive

31,726 views 90 this week
7 commentsread comments
1 2 3 4 5
excellent!
x 11
add to favorites
launch autoscroll
font size
0
reset
guitar tuner
Tab Pro tools
  • play this tab
  • loop segment
  • change instrument
  • show fretboard
  • metronome
Autoscroll
slow
fast
+/-
esc
set tempo
stop
Contributor
Difficulty
novice
This is a very easy and fun song to play.

Intro
Gb-----------------|----------------------------|
Db-----------------|*-------------------------*-|
Ab-----------------|*-------------------------*-|
Eb-0-----------(0)-|--h5--0--0-2-2---0-0-0-2-0--|

Verse/Pre-Verse                 Chorus
Gb-----------------------------|---------------------------|
Db-*--------------------------*|*------------------------*-|
Ab-*--------------------------*|*--0-2--(2)--------------*-|
Eb---h5--0--0-2-2---0-0-0-2-0--|--------------0-0----(0)---|
                          Verse/Pre-Verse
Gb-----------------------|-----------------------------|
Db-----2-----------------|-*--------------------------*|
Ab-0-4-------------------|-*--------------------------*|
Eb-------4-(4)-0-2--(2)--|---h5--0--0-2-2---0-0-0-2-0--|

Chorus # 2
Gb---------------------------|------------------|
Db-*------------------------*|------------------|
Ab-*--0-2--(2)--------------*|-2----(2)---------|
Eb--------------0-0----(0)---|----------0---(0)-|

Gb-------------------------|----------------------|
Db*-----------------------*|-----2----------------|
Ab*--0-2--(2)-------------*|-0-4------------------|
Eb-------------0-0----(0)--|-------4-(4)-0-2--(2)-|

Interlude
Gb------------------------------|------------------------|
Db-*------2--------------------*|------2-----------------|
Ab-*--0-4----------------------*|--0-4-------------------|
Eb----------4-(4)-0-2--(2)---0--|--------4-(4)-0-2--(2)--|

Bridge
Gb--------------------------------------|------------------------------------|
Db-*-------6-----7-----8-----9---------*|*---------------------------------*-|
Ab-*-7-7-7---7-7---7-7---7-7---7-7-7---*|*-0-0-0-4-0-0-5-0-0-6-0-0-7-0-0-0-*-|
Eb-----------------------------------0--|------------------------------------|

Gb-----------------------------------|---------------------------|
Db-------6-----7-----8-----9---------|-------6-----7-----8-----9-|
Ab-7-7-7---7-7---7-7---7-7---7-7-7---|-7-7-7---7-7---7-7---7-7---|
Eb---------------------------------0-|---------------------------|
                                        Verse/Pre-Verse
Gb-----6-----7-----8-------------------|------------------------------|
Db-------------------------------------|-*--------------------------*-|
Ab-7-7---7-7---7-7---7-7---------------|-*--------------------------*-|
Eb------------------------0--------(0)-|---h5--0--0-2-2---0-0-0-2-0---|

Outro
Gb---------------------------|------------------|
Db-*------------------------*|------------------|
Ab-*--0-2--(2)--------------*|-2----(2)---------|
Eb--------------0-0----(0)---|----------0---(0)-|

Gb-------------------------|----------------------|
Db*-----------------------*|-----2----------------|
Ab*--0-2--(2)-------------*|-0-4------------------|
Eb-------------0-0----(0)--|-------4-(4)-0-2--(2)-|
comments
print report bad tab
7 comments total. Showing first comments.
+2 reply
matt5112 wrote on January 22 2008, 04:39 pm

Finally someone got it right!

+1 reply
Tanner Streeter wrote on April 28 2013, 10:54 pm

Absolutely perfect.

0 reply
bruce51 wrote on September 22 2013, 11:44 am

The bridge is not right. It should have an extra (D-6, A-7, A-7) for each E riff. I'd play the A riff like the E riff but play it on the D and G strings and add and extra (G-6, D-7, D-7) for each A riff. Also do the E riff twice, then A riff twice, then E riff twice but extend the 2nd E riff to the G string.

I want to post or [tab]
guest
You may want to rate the tab now too:
select rating
Please do not post tabs as comments. Select "correction" instead!