Oops, an error
Loading. Please wait.

Killer On The Loose tab

version 2
version 2

Whole song

Interactive

221 views 6 this week
no commentswrite comment
1 2 3 4 5
3 more votes to show rating
add to favorites
×
Save as Personal and add changes to this tab that will be seen only by you. Learn more ›
×
You can save this tab as Personal to edit and correct it or add notes. All changes will be seen only by you. Learn more »
launch autoscroll
font size
0
reset
how to read this tab
guitar tuner
edit
Autoscroll
slow
fast
+/-
esc
set tempo
stop
Author
Difficulty
KILLER ON THE LOOSE

As recorded by Thin Lizzy
(From the 1980 Album CHINATOWN)

Words and Music by Philip Parris Lynott

Transcribed by Slowhand



          A7                   E5                   D5                   B5
      x 0 7 6 8 x          0 2 2 x x x          x 5 7 7 x x          x 2 4 4 x x

          C#5                  D#5
      x 4 6 6 x x          x 6 8 8 x x



Gtr I (E A D G B E) - 'Electric Guitar 1'
Gtr II (E A D G B E) - 'Electric Guitar 2'
Gtr III (E A D G B E) - 'Electric Guitar 3'
Gtr IV (E A D G B E) - 'Electric Guitar 4'


 Intro
  Q=178
  N.C.       A5
 4/4
  Gtr I (El. Gtr. w/ light dist.)
             PM--------|   PM------------|   PM--------|   PM|
  W          E E E E E E E E   E E E E E E E E   E E E E E E E E
|----------|-----------------|-----------------|-----------------|
|----------|-----------------|-----------------|-----------------|
|----------|-----------------|-----------------|-----------------|
|----------|-2-2-2-2-2-2---2-|-2-2-2-2-2-2---2-|-2-2-2-2-2-2-2---|
|----------|-0-0-0-0-0-0-3-0-|-0-0-0-0-0-0-5-0-|-0-0-0-0---0-0-5-|
|----------|-----------------|-----------------|-----------------|
|
| Gtr II (El. Gtr. w/ light dist.)
|            PM--------|   PM------------|   PM--------|   PM|
| W          E E E E E E E E   E E E E E E E E   E E E E E E E E
|----------|-----------------|-----------------|-----------------|
|----------|-----------------|-----------------|-----------------|
|----------|-2-2-2-2-2-2---2-|-2-2-2-2-2-2-----|-2-2-2-2---2-2---|
|----------|-2-2-2-2-2-2---2-|-2-2-2-2-2-2---2-|-2-2-2-2-2-2-2---|
|----------|-0-0-0-0-0-0-3-0-|-0-0-0-0-0-0-5-0-|-0-0-0-0---0-0-5-|
|----------|-----------------|-----------------|-----------------|


                      A7
                      Gtr III (El. Gtr. w/ light dist.)
  W                   W                 +W                 +W
                      |                  |                  |
                      /                  /                  /

  Gtr I
  PM----|             PM--------|   PM-------------|   PM---------|   PM|
  E E E E E E E E     E E E E E E E E    E E E E E E E E    E E E E E E E E
|-----------------||------------------|------------------|-------------------|
|-----------------||o-----------------|------------------|-------------------|
|-----------------||------------------|------------------|-------------------|
|-2-2-2-2-------2-||--2-2-2-2-2-2---2-|--2-2-2-2-2-2---2-|--2-2-2-2-2-2-2----|
|-0-0-0-0-3-2-0-0-||o-0-0-0-0-0-0-3-0-|--0-0-0-0-0-0-5-0-|--0-0-0-0---0-0-5--|
|-----------------||------------------|------------------|-------------------|
|
| Gtr II
| PM----|             PM--------|   PM-------------|   PM---------|   PM|
| E E E E E E E E     E E E E E E E E    E E E E E E E E    E E E E E E E E
|-----------------||------------------|------------------|-------------------|
|-----------------||o-----------------|------------------|-------------------|
|-2-2-2-2-------2-||--2-2-2-2-2-2---2-|--2-2-2-2-2-2-----|--2-2-2-2---2-2----|
|-2-2-2-2-------2-||--2-2-2-2-2-2---2-|--2-2-2-2-2-2---2-|--2-2-2-2-2-2-2----|
|-0-0-0-0-3-2-0-0-||o-0-0-0-0-0-0-3-0-|--0-0-0-0-0-0-5-0-|--0-0-0-0---0-0-5--|
|-----------------||------------------|------------------|-------------------|


  1.,2.               3.
                                        B5
  +W                   +H.           +E S S
   |                    |             | | |
   /                    /             / / /

   PM----|              PM-----|
   E E E E E E E E  3x  E  E E E E E  E S S
|-------------------||----------------------|
|------------------o||----------------------|
|-------------------||----------------------|
|--2-2-2-2-------2--||--2--2-2-2--------9-9-|
|--0-0-0-0-3-2-0-0-o||--0--0-0-0-3-2--0-9-9-|
|-------------------||------------------7-7-|
|
|  PM----|              PM-----|
|  E E E E E E E E  3x  E  E E E E E  E S S
|-------------------||----------------------|
|------------------o||----------------------|
|--2-2-2-2-------2--||--2--2-2-2------------|
|--2-2-2-2-------2--||--2--2-2-2--------9-9-|
|--0-0-0-0-3-2-0-0-o||--0--0-0-0-3-2--0-9-9-|
|-------------------||------------------7-7-|


   E  E E E E E E E    E  E E E E  E E E      E  E E E E E E E
   |  | | | | | | |    |  | | | |  | | |      |  | | | | | | |
   /  / / / / / / /    /  / / / /  / / /      /  / / / / / / /

  +W                  +E  E Q   Q.     S S   +W
|-------------------|----------------------|-------------------|
|-------------------|-----9-----7----------|-------------------|
|-------------------|-----9-----7----------|-------------------|
|-(9)---------------|-(9)-9-----7------9-9-|-(9)---------------|
|-(9)---------------|-(9)--------------9-9-|-(9)---------------|
|-(7)---------------|-(7)--------------7-7-|-(7)---------------|
|
| +W                  +E  E Q   Q.     S S   +W
|-------------------|----------------------|-------------------|
|-------------------|-----9-----7----------|-------------------|
|-------------------|-----9-----7----------|-------------------|
|-(9)---------------|-(9)-9-----7------9-9-|-(9)---------------|
|-(9)---------------|-(9)--------------9-9-|-(9)---------------|
|-(7)---------------|-(7)--------------7-7-|-(7)---------------|


   E  E E E E  E E E      E  E E E E E E E
   |  | | | |  | | |      |  | | | | | | |
   /  / / / /  / / /      /  / / / / / / /

  Gtrs I, II
  +E  E Q   Q.     S S   +W
|----------------------|-------------------|
|-----9-----7----------|-------------------|
|-----9-----7----------|-------------------|
|-(9)-9-----7------9-9-|-(9)---------------|
|-(9)--------------9-9-|-(9)---------------|
|-(7)--------------7-7-|-(7)---------------|


   E  E E E E  E E E     E   E E E E E E E
   |  | | | |  | | |     |   | | | | | | |
   /  / / / /  / / /     /   / / / / / / /

  +E  E Q   Q.     S S   H..             S S
|----------------------|---------------------|
|-----9-----7----------|---------------------|
|-----9-----7----------|---------------------|
|-(9)-9-----7------9-9-|-9---------------9-9-|
|-(9)--------------9-9-|-9---------------9-9-|
|-(7)--------------7-7-|-7---------------7-7-|


                           1st & 2nd Verses
      C#5   D5    C#5       E5             D5
  E E  E  E  E  E  E  E     H.          +E S S
  | |  |  |  |  |  |  |     |            | | |
  / /  /  /  /  /  /  /     /            / / /

  E E  E  E  E  E  E  E     Q   Q  +Q.     S S
|-----------------------||---------------------|
|-----------------------||o-----9--(9)---------|
|-----------------------||--9---9--(9)-----7-7-|
|-9-9-11-11-12-12-11-11-||--9---9--(9)-----7-7-|
|-9-9-11-11-12-12-11-11-||o-7---7--(7)-----5-5-|
|-7-7--9--9-10-10--9--9-||--0---0--(0)---------|


                   E5             D5
  Q.   E  +Q  Q    H.          +E S S
  |    |   |  |    |            | | |
  /    o   /  o    /            / / /

  Q.   Q.     Q    Q   Q  +Q.     S S
|----------------|---------------------|
|----------------|-----9--(9)----------|
|-7----6---------|-9---9--(9)-----7-7--|
|-7----6------7--|-9---9--(9)-----7-7--|
|-5----4------7--|-7---7--(7)-----5-5--|
|-------------5--|-0---0--(0)----------|


               E5                  D5                     E5             D5
  Q.   E +Q.   S S   H.         +E S S   Q.   E +Q   Q    H.          +E S S
  |    |  |    | |   |           | | |   |    |  |   |    |            | | |
  /    o  /    / /   /           / / /   /    o  /   o    /            / / /

       ~~~~~~
  Q.   E +Q.   S S   Q   Q  E E  E S S   Q.   E +Q   Q    Q   Q  +Q    E S S
|------------------|-------------------|----------------|--------------------|
|------------------|-----9--9----9-----|----------------|-----9--(9)---9-----|
|-7----6-(6)---9-9-|-9---9--9----9-7-7-|-7----6-(6)-----|-9---9--(9)---9-7-7-|
|-7----6-(6)---9-9-|-9---9--9----9-7-7-|-7----6-(6)--7--|-9---9--(9)---9-7-7-|
|-5----4-(4)---7-7-|-7---7--7-7----5-5-|-5----4-(4)--7--|-7---7--(7)---7-5-5-|
|--------------0-0-|-0---0--0----------|-------------5--|-0---0--(0)---0-----|


               E5                D5                     E5             D5
  Q.   E +Q.   S S   H.       +E S S   Q.   E +Q   Q    H.          +E S S
  |    |  |    | |   |         | | |   |    |  |   |    |            | | |
  /    o  /    / /   /         / / /   /    o  /   o    /            / / /

  Q.   E +Q.   S S   Q   H     Q       Q.   E +Q   Q    Q   Q  +Q.     S S
|------------------|-----------------|----------------|--------------------|
|------------------|-----9-----------|----------------|-----9--(9)---------|
|-7----6-(6)---9-9-|-9---9-----9-----|-7----6-(6)-----|-----9--(9)-----7-7-|
|-7----6-(6)---9-9-|-9---9-----9-----|-7----6-(6)--7--|-9---9--(9)-----7-7-|
|-5----4-(4)---7-7-|-7---7-----7-----|-5----4-(4)--7--|-7---7--(7)-----5-5-|
|------------------|-0---0-----0-----|-------------5--|-0---0--(0)---------|


               E5                   D5                     E5              D5
  Q.   E +Q.   S S   H.          +E S S   Q.   E +Q   Q    H.           +E S S
  |    |  |    | |   |            | | |   |    |  |   |    |             | | |
  /    o  /    / /   /            / / /   /    o  /   o    /             / / /

  Q.   E +Q.   S S   Q   Q  +Q    E S S   Q.   E +Q   Q    Q   Q  +E  E  E S S
|------------------|--------------------|----------------|---------------------|
|------------------|-----9--(9)---9-----|----------------|-----9--(9)----9-----|
|-7----6-(6)---9-9-|-9---9--(9)---9-7-7-|-7----6-(6)-----|-9---9--(9)----9-7-7-|
|-7----6-(6)---9-9-|-9---9--(9)---9-7-7-|-7----6-(6)--7--|-9---9--(9)----9-7-7-|
|-5----4-(4)---7-7-|-7---7--(7)---7-5-5-|-5----4-(4)--7--|-7---7--(7)----7-5-5-|
|------------------|-0---0--(0)---0-----|-------------5--|-0---0--(0)-0--------|


                     Pre-Chorus
               B5     B5
  Q.   E +Q.   S S    W                 +H.          +E S S   W
  |    |  |    | |    |                  |            | | |   |
  /    o  /    / /    /                  /            / / /   /

  Q.   E +Q.   S S    Q  Q  +E  E E E    E  E Q  Q.     S S   Q  Q  +E  E E E
|------------------||-----------------|---------------------|------------------|
|------------------||-----------------|-----9----7----------|------------------|
|-7----6-(6)-------||-----------------|-----9----7----------|------------------|
|-7----6-(6)---9-9-||-9--9--(9)-9-9-9-|--9--9----7------9-9-|-9--9--(9)-9-9-9--|
|-5----4-(4)---9-9-||-9--9--(9)-9-9-9-|--9--------------9-9-|-9--9--(9)-9-9-9--|
|--------------7-7-||-7--7--(7)-7-7-7-|--7--------------7-7-|-7--7--(7)-7-7-7--|


  +H.           +E S S   W
   |             | | |   |
   /             / / /   /

   E  E E E Q.     S S   Q   E  E  E  E E E
|----------------------|-----7-----7--------|
|-----9---x-7----------|-----7-----7--------|
|-----9---x-7----------|----(7)---(7)-------|
|--9--9---x-7------9-9-|-9------------9-9-9-|
|--9---------------9-9-|-9------9-----9-9-9-|
|--7---------------7-7-|-7------7-----7-7-7-|


  +H.           +E S S   W
   |             | | |   |
   /             / / /   /

   E  E E E Q.     S S   Q  Q  +E  E E E
|----------------------|----7--(7)--------|
|-----9---x-7----------|----7--(7)--------|
|-----9---x-7----------|----7--(7)--------|
|--9--9---x-7------9-9-|-9---------9-9-9--|
|--9---------------9-9-|-9---------9-9-9--|
|--7---------------7-7-|-7---------7-7-7--|


                          Chorus
                        $
      C#5   D5    D#5      E5            D5
  E E  E  E  E  E  E  E    H.         +E S S
  | |  |  |  |  |  |  |    |           | | |
  / /  /  /  /  /  /  /    /           / / /

  E E  E  E  E  E  E  E    Q   Q  E E  E E
|-----------------------||-------------------|
|-----------------------||-------------------|
|-----------------------||-9---9-------9-----|
|-9-9-11-11-12-12-13-13-||-9---9-------9-----|
|-9-9-11-11-12-12-13-13-||-7---7-------7-----|
|-7-7--9--9-10-10-11-11-||-0---0--0-0--0-0---|


                      E5            D5
  Q.   E +Q   Q       H.         +E S S
  |    |  |   |       |           | | |
  /    o  /   o       /           / / /

  Q.   E +Q   E S S   Q   Q  E E  Q
|-------------------|-------------------|
|-------------------|-------------------|
|-7----6-(6)----9-9-|-9---9-------9-----|
|-7----6-(6)--7-9-9-|-9---9-------9-----|
|-5----4-(4)--7-7-7-|-7---7-------7-----|
|-------------5-0-0-|-0---0--0-0--0-----|


               E5                  D5
  Q.   E +Q.   S S   H.         +E S S
  |    |  |    | |   |           | | |
  /    o  /    / /   /           / / /

  Q.   E +Q.   S S   Q   Q  E E  E E
|------------------|-------------------|
|------------------|-------------------|
|-7----6-(6)---9-9-|-9---9-------9-----|
|-7----6-(6)---9-9-|-9---9-------9-----|
|-5----4-(4)---7-7-|-7---7-------7-----|
|--------------0-0-|-0---0--0-0--0-0---|
|
| Gtr II
|      ~~~~~~
| Q.   E +Q.   S S   Q   Q  E E  E E
|------------------|-------------------|
|------------------|-------------------|
|-7------------9-9-|-9---9-------9-----|
|-7------------9-9-|-9---9-------9-----|
|-5----4-(4)---7-7-|-7---7-------7-----|
|--------------0-0-|-0---0--0-0--0-0---|


                                 To Coda
                      E5            D5
  Q.   E +Q   Q       H.         +E S S
  |    |  |   |       |           | | |
  /    o  /   o       /           / / /

  Q.   E +Q   E S S   Q   Q  E E  Q
|-------------------|--------------------|
|-------------------|--------------------|
|-7----6-(6)----9-9-|-9---9-------9------|
|-7----6-(6)--7-9-9-|-9---9-------9------|
|-5----4-(4)--7-7-7-|-7---7-------7------|
|-------------5-0-0-|-0---0--0-0--0------|
|
| Q.   E +Q   E S S   Q   Q  E E  Q
|-------------------|--------------------|
|-------------------|--------------------|
|-7----6-(6)----9-9-|-9---9-------9------|
|-7----6-(6)--7-9-9-|-9---9-------9------|
|-5----4-(4)--7-7-7-|-7---7-------7------|
|-------------5-0-0-|-0---0--0-0--0------|


                          Bridge
               E5          A7
  Q.   E +Q.   S S         W
  |    |  |    | |         |
  /    o  /    / /         /

                           PM--------|   PM-
  Q.   E +Q.   S S         E E E E E E E E
|-------------------||-||------------------|
|------------------o||-||o-----------------|
|-7----6-(6)---9-9--||-||------------------|
|-7----6-(6)---9-9--||-||------------------|
|-5----4-(4)---7-7-o||-||o-0-0-0-0-0-0-3-0-|
|--------------0-0--||-||------------------|
|
|      ~~~~~~              PM--------|   PM-
| Q.   E +Q.   S S         E E E E E E E E
|-------------------||-||------------------|
|------------------o||-||o-----------------|
|-7------------9-9--||-||------------------|
|-7------------9-9--||-||--2-2-2-2-2-2---2-|
|-5----4-(4)---7-7-o||-||o-0-0-0-0-0-0-3-0-|
|--------------0-0--||-||------------------|


  +W                 +W
   |                  |
   /                  /

 ------------|   PM---------|   PM|
   E E E E E E E E    E E E E E E E E
|------------------|-------------------|
|------------------|-------------------|
|------------------|-------------------|
|------------------|----------2--------|
|--0-0-0-0-0-0-5-0-|--0-0-0-0---0-0-5--|
|------------------|-------------------|
|
|------------|   PM---------|   PM|
|  E E E E E E E E    E E E E E E E E
|------------------|-------------------|
|------------------|-------------------|
|------------------|-------------------|
|--2-2-2-2-2-2---2-|--2-2-2-2-2-2-2----|
|--0-0-0-0-0-0-5-0-|--0-0-0-0---0-0-5--|
|------------------|-------------------|


  1.,2.,3.            4.
  +W                   +W                  W
   |                    |                  |
   /                    /                  /

  Gtr IV (El. Gtr. w/ dist.)
   W                4x  H       Q   E E   +W
|-------------------||------------------|-------------------|
|------------------o||------------------|-------------------|
|-------------------||----------------2-|-(2)---------------|
|-------------------||------------------|-------------------|
|------------------o||------------------|-------------------|
|-------------------||------------------|-------------------|
|
| Gtr I
|  PM----|              PM----|            PM---------|   PM-
|  E E E E E E E E  4x  E E E E E E E E    E  E E E E E E E
|-------------------||------------------|-------------------|
|------------------o||------------------|-------------------|
|-------------------||------------------|-------------------|
|-------------------||------------------|-------------------|
|--0-0-0-0-3-2-0-0-o||--0-0-0-0-3-2-0-0-|--0--0-0-0-0-0-3-0-|
|-------------------||------------------|-------------------|
|
| Gtr II
|  PM----|              PM----|            PM---------|   PM-
|  E E E E E E E E  4x  E E E E E E E E    E  E E E E E E E
|-------------------||------------------|-------------------|
|------------------o||------------------|-------------------|
|-------------------||------------------|-------------------|
|--2-2-2-2-------2--||--2-2-2-2-------2-|--2--2-2-2-2-2---2-|
|--0-0-0-0-3-2-0-0-o||--0-0-0-0-3-2-0-0-|--0--0-0-0-0-0-3-0-|
|-------------------||------------------|-------------------|


  +W                  +W
   |                   |
   /                   /

  +W                  +W
|-------------------|---------------------|
|-------------------|---------------------|
|-(2)---------------|-(2)-----------------|
|-------------------|---------------------|
|-------------------|---------------------|
|-------------------|---------------------|
|
|-------------|   PM----------|   PM|
|  E  E E E E E E E    E  E E E E E E E
|-------------------|---------------------|
|-------------------|---------------------|
|-------------------|---------------------|
|-------------------|-----------2---------|
|--0--0-0-0-0-0-5-0-|--0--0-0-0---0-0-5---|
|-------------------|---------------------|
|
|-------------|   PM----------|   PM|
|  E  E E E E E E E    E  E E E E E E E
|-------------------|---------------------|
|-------------------|---------------------|
|-------------------|---------------------|
|--2--2-2-2-2-2---2-|--2--2-2-2-2-2-2-----|
|--0--0-0-0-0-0-5-0-|--0--0-0-0---0-0-5---|
|-------------------|---------------------|


   +W                     W
    |                     |
    /                     /

   +W                    +W
|---------------------|---------------------|
|---------------------|---------------------|
|-([2])---------------|-([2])---------------|
|---------------------|---------------------|
|---------------------|---------------------|
|---------------------|---------------------|
|
|   PM------|       PM----------------|   PM-
|   E   E E E E E E E     E   E E E E E E E
|---------------------|---------------------|
|---------------------|---------------------|
|---------------------|---------------------|
|---------------------|---------------------|
|---0---0-0-0-3-2-0-0-|---0---0-0-0-0-0-3-0-|
|---------------------|---------------------|
|
|   PM------|       PM----------------|   PM-
|   E   E E E E E E E     E   E E E E E E E
|---------------------|---------------------|
|---------------------|---------------------|
|---------------------|---------------------|
|---2---2-2-2-------2-|---2---2-2-2-2-2---2-|
|---0---0-0-0-3-2-0-0-|---0---0-0-0-0-0-3-0-|
|---------------------|---------------------|


   +W                    +W
    |                     |
    /                     /

   +W                    +W
|---------------------|----------------------|
|---------------------|----------------------|
|-([2])---------------|-([2])----------------|
|---------------------|----------------------|
|---------------------|----------------------|
|---------------------|----------------------|
|
|---------------|   PM------------|   PM|
|   E   E E E E E E E     E   E E E E E E E
|---------------------|----------------------|
|---------------------|----------------------|
|---------------------|----------------------|
|---------------------|-------------2--------|
|---0---0-0-0-0-0-5-0-|---0---0-0-0---0-0-5--|
|---------------------|----------------------|
|
|---------------|   PM------------|   PM|
|   E   E E E E E E E     E   E E E E E E E
|---------------------|----------------------|
|---------------------|----------------------|
|---------------------|----------------------|
|---2---2-2-2-2-2---2-|---2---2-2-2-2-2-2----|
|---0---0-0-0-0-0-5-0-|---0---0-0-0---0-0-5--|
|---------------------|----------------------|


                         Guitar Solo
                          A7
   +W                     W
    |                     |
    /                     /

                          ~~~
   +E   H.           E    W
|----------------------||-------------------|
|----------------------||-8-----------------|
|-([2])--------------5-||-7b9---------------|
|-------x\-------------||-------------------|
|-------x\-------------||-------------------|
|----------------------||-------------------|
|
|   PM-------|       PM---------------|   PM-
|   E   E  E E E E E E    E   E E E E E E E
|----------------------||-------------------|
|----------------------||-------------------|
|----------------------||-------------------|
|----------------------||-2---2-2-2-2-2---2-|
|---0---0--0-0-3-2-0-0-||-0---0-0-0-0-0-3-0-|
|----------------------||-------------------|
|
|   PM-------|       PM---------------|   PM-
|   E   E  E E E E E E    E   E E E E E E E
|----------------------||-------------------|
|----------------------||-------------------|
|----------------------||-2---2-2-2-2-2---2-|
|---2---2--2-2-------2-||-2---2-2-2-2-2---2-|
|---0---0--0-0-3-2-0-0-||-0---0-0-0-0-0-3-0-|
|----------------------||-------------------|


  +W                             +W
   |                              |
   /                              /

                                                ~~~
   S S S S +E.   S S S E S S E    E.    +S     +H.
|------------------------------|-------------------------------|
|--5---------------------------|-------------------------------|
|----7p5h7-(7)---5-7-5-------5-|--7b9r==(7)b9==(7)-------------|
|------------------------5h7---|-------------------------------|
|----------------------7-------|-------------------------------|
|------------------------------|-------------------------------|
|
|----------------------|     PM--------------------|   PM|
|  E   E    E  E   E   E E   E    E   E         E  E E E E E
|------------------------------|-------------------------------|
|------------------------------|-------------------------------|
|------------------------------|-------------------------------|
|--2---2----2--2---2---2-----2-|--2---2---------2--2-2-2-2-----|
|--0---0----0--0---0---0-5---0-|--0---0---------0--0---0-0-5---|
|------------------------------|-------------------------------|
|
|----------------------|     PM--------------------|   PM|
|  E   E    E  E   E   E E   E    E   E         E  E E E E E
|------------------------------|-------------------------------|
|------------------------------|-------------------------------|
|--2---2----2--2---2---2-------|--2---2---------2--2---2-2-----|
|--2---2----2--2---2---2-----2-|--2---2---------2--2-2-2-2-----|
|--0---0----0--0---0---0-5---0-|--0---0---------0--0---0-0-5---|
|------------------------------|-------------------------------|


  +W                      W
   |                      |
   /                      /

  +E  S S E E E E S S E   E E     +Q    +Q     S S E
|---------------------5-|----------------------5-----|
|-----5-----------------|-5-8b10==(8)---(8)r-----8p5-|
|-(7)---7p5---7-5-7s9---|----------------------------|
|-----------7-----------|----------------------------|
|-----------------------|----------------------------|
|-----------------------|----------------------------|
|
|  PM-------|             PM-----------------|     PM-
|  E  E   E E E E E   E   E E      E  E  E   E E   E
|-----------------------|----------------------------|
|-----------------------|----------------------------|
|-----------------------|----------------------------|
|--2--2---2-2---------2-|-2-2------2--2--2---2-----2-|
|--0--0---0-0-3-2-0---0-|-0-0------0--0--0---0-3---0-|
|-----------------------|----------------------------|
|
|  PM-------|             PM-----------------|     PM-
|  E  E   E E E E E   E   E E      E  E  E   E E   E
|-----------------------|----------------------------|
|-----------------------|----------------------------|
|--2--2---2-2---------2-|-2-2------2--2--2---2-----2-|
|--2--2---2-2---------2-|-2-2------2--2--2---2-----2-|
|--0--0---0-0-3-2-0---0-|-0-0------0--0--0---0-3---0-|
|-----------------------|----------------------------|


  +W
   |
   /

                |--3--| |---3----| |3|
   S S S    +S  E E   E E    E   E E Q
|--8p5----------5-7---5------5---------------|
|------8b10-(8)---------8b10-----8-5-8b10====|
|--------------------------------------------|
|--------------------------------------------|
|--------------------------------------------|
|--------------------------------------------|
|
|------------------------------|           PM
|  E   E        E   E   E      E   E       E
|--------------------------------------------|
|--------------------------------------------|
|--------------------------------------------|
|--2---2--------2---2---2------2-----------2-|
|--0---0--------0---0---0------0---5-------0-|
|--------------------------------------------|
|
|------------------------------|           PM
|  E   E        E   E   E      E   E       E
|--------------------------------------------|
|--------------------------------------------|
|--2---2--------2---2---2------2-------------|
|--2---2--------2---2---2------2-----------2-|
|--0---0--------0---0---0------0---5-------0-|
|--------------------------------------------|


  +W                                         +W
   |                                          |
   /                                          /

           |--3--| |---3---| |-----3-----|
  +E  +E   E E   E E   E   E E E     +S  S    Q      +Q    +E   S S E   E
|----------5-----------5---8p5-------------|------------------------5-----|
|-(8)-(8)r---8p==5-------------------------|--------------------5-5---/10-|
|------------------7b9---------7b8r==(7)p5-|--7b9====(7)---(7)r-----------|
|------------------------------------------|------------------------------|
|------------------------------------------|------------------------------|
|------------------------------------------|------------------------------|
|
|  PM----------|         PM--|                PM---------|
|  E   E   E   E   E     E   E     E          E    E  E  E  E   E   E   E
|------------------------------------------|------------------------------|
|------------------------------------------|------------------------------|
|------------------------------------------|------------------------------|
|--2---2---2---2---2-----2---2-------------|--2----2--2--2--------------2-|
|--0---0---0---0---------0---0-----5-------|--0----0--0--0--3---2---0---0-|
|------------------------------------------|------------------------------|
|
|  PM----------|         PM--|                PM---------|
|  E   E   E   E   E     E   E     E          E    E  E  E  E   E   E   E
|------------------------------------------|------------------------------|
|------------------------------------------|------------------------------|
|--2---2---2---2---------2---2-------------|--2----2--2--2--------------2-|
|--2---2---2---2---2-----2---2-------------|--2----2--2--2--------------2-|
|--0---0---0---0---------0---0-----5-------|--0----0--0--0--3---2---0---0-|
|------------------------------------------|------------------------------|


    W                         +W
    |                          |
    /                          /

   +H         +E  E  Q         H            +E    E       +E  S  S
|-----------------8-10b12---|-10b12========(10)r-10pb12==(10)p8------|
|-(10)-------(10)-----------|-----------------------------------10---|
|---------------------------|----------------------------------------|
|---------------------------|----------------------------------------|
|---------------------------|----------------------------------------|
|---------------------------|----------------------------------------|
|
|   PM------------|       PM---------------------|            PM
|   E  E E E   E  E  E    E    E     E E E   E    E        E  E
|---------------------------|----------------------------------------|
|---------------------------|----------------------------------------|
|---------------------------|----------------------------------------|
|---2--2-2-2---2--2-------2-|--2-----2-2-2---2----2-----------2------|
|---0--0-0-0---0--0--3----0-|--0-----0-0-0---0----0--------5--0------|
|---------------------------|----------------------------------------|
|
|   PM------------|       PM---------------------|            PM
|   E  E E E   E  E  E    E    E     E E E   E    E        E  E
|---------------------------|----------------------------------------|
|---------------------------|----------------------------------------|
|---2--2-2-2---2--2-------2-|--2-----2-2-2---2----2------------------|
|---2--2-2-2---2--2-------2-|--2-----2-2-2---2----2-----------2------|
|---0--0-0-0---0--0--3----0-|--0-----0-0-0---0----0--------5--0------|
|---------------------------|----------------------------------------|


  +W                          +W
   |                           |
   /                           /

             |----3----|       |----3----|
   E E  E E  Q    Q    Q       Q    Q    Q    Q    S   +S  S S
|-10-8-10-8-10/---x/---x/---|--x/---x/---x/---x/---------------|
|---------------------------|----------------------------------|
|---------------------------|----------------------7b8r(7)p5---|
|---------------------------|--------------------------------7-|
|---------------------------|----------------------------------|
|---------------------------|----------------------------------|
|
|  PM-----|     PM---|         PM-----------|
|  E E  E E  E  E    E    E    E  E    E    E E  E E       E
|---------------------------|----------------------------------|
|---------------------------|----------------------------------|
|---------------------------|----------------------------------|
|--2-2--2-2--2--2----2------|--2--2----2----2--------------2---|
|--0-0--0-0-----0----0----5-|--0--0----0----0-3--2-0-------0---|
|---------------------------|----------------------------------|
|
|  PM-----|     PM---|         PM-----------|
|  E E  E E  E  E    E    E    E  E    E    E E  E E       E
|---------------------------|----------------------------------|
|---------------------------|----------------------------------|
|--2-2--2-2-----2----2------|--2--2----2----2--------------2---|
|--2-2--2-2--2--2----2------|--2--2----2----2--------------2---|
|--0-0--0-0-----0----0----5-|--0--0----0----0-3--2-0-------0---|
|---------------------------|----------------------------------|


  W                 +W
  |                  |
  /                  /

  E Q.    H          H        H
|-----------------|---------------------|
|-----------------|---------------------|
|-----------------|---------------------|
|-5h7S====8S======|==9S======10S========|
|-----------------|---------------------|
|-----------------|---------------------|
|
| PM--------|   PM--------------|   PM
| E E E E E E E E    E E E E  E E E E
|-----------------|---------------------|
|-----------------|---------------------|
|-----------------|---------------------|
|-2-2-2-2-2-2---2-|--2-2-2-2--2-2---2---|
|-0-0-0-0-0-0-3-0-|--0-0-0-0--0-0-5-0---|
|-----------------|---------------------|
|
| PM--------|   PM--------------|   PM
| E E E E E E E E    E E E E  E E E E
|-----------------|---------------------|
|-----------------|---------------------|
|-2-2-2-2-2-2---2-|--2-2-2-2--2-2-------|
|-2-2-2-2-2-2---2-|--2-2-2-2--2-2---2---|
|-0-0-0-0-0-0-3-0-|--0-0-0-0--0-0-5-0---|
|-----------------|---------------------|


  +W                  +W
   |                   |
   /                   /

   H        H          H        Q.     E
|-------------------|-----------------------|
|-------------------|-----------------------|
|-------------------|------------------7b9==|
|-11S======12S======|=13S======14-----------|
|-------------------|-----------------------|
|-------------------|-----------------------|
|
|  PM----|    PM|      PM----|
|  E E E E  E E E E    E E E E  E  E E E
|-------------------|-----------------------|
|-------------------|-----------------------|
|-------------------|-----------------------|
|--2-2-2-2--2-2-2---|--2-2-2-2---------2----|
|--0-0-0-0----0-0-5-|--0-0-0-0--3--2-0-0----|
|-------------------|-----------------------|
|
|  PM----|    PM|      PM----|
|  E E E E  E E E E    E E E E  E  E E E
|-------------------|-----------------------|
|-------------------|-----------------------|
|--2-2-2-2----2-2---|--2-2-2-2---------2----|
|--2-2-2-2--2-2-2---|--2-2-2-2---------2----|
|--0-0-0-0----0-0-5-|--0-0-0-0--3--2-0-0----|
|-------------------|-----------------------|


  B5
   W
   |
   /

  +E   E  S S S    S  S  S S    S  S S S    S
|---------------------------------------------|
|------7-10p7------7-10p=7------7-10p7------7-|
|-(7)r--------9b11---------9b11--------9b11---|
|---------------------------------------------|
|---------------------------------------------|
|---------------------------------------------|
|
|  Q      Q          +E    E       E   E
|---------------------------------------------|
|---------------------------------------------|
|---------------------------------------------|
|--9------9----------(9)---9-------9---9------|
|--9------9----------(9)---9-------9---9------|
|--7------7----------(7)---7-------7---7------|
|
|  Q      Q          +E    E       E   E
|---------------------------------------------|
|---------------------------------------------|
|---------------------------------------------|
|--9------9----------(9)---9-------9---9------|
|--9------9----------(9)---9-------9---9------|
|--7------7----------(7)---7-------7---7------|


  +H.                                 +E    S  S
   |                                   |    |  |
   /                                   /    /  /

   S S S    S  S S S    S  S S S    S +S  E    S
|-----------------------------------7-(7)-9---10-|
|-10p7------7-10p7------7-10p7-------------------|
|------9b11--------9b11--------9b11--------------|
|------------------------------------------------|
|------------------------------------------------|
|------------------------------------------------|
|
| Gtrs I, II
|  E   E       Q           Q.               S  S
|------------------------------------------------|
|------9-------------------7---------------------|
|------9-------------------7---------------------|
|--9---9-------------------7----------------9--9-|
|--9----------------------------------------9--9-|
|--7----------------------------------------7--7-|


   W
   |
   /

          |--3---|    |-3-|
   E  +S  S S    S S  S S S  S  S S S S S S S
|-10-(10)p9p7------7----------------------------|
|---------------10---10p9p8p=7--8p7h8p7---------|
|---------------------------------------9p7-9s==|
|-----------------------------------------------|
|-----------------------------------------------|
|-----------------------------------------------|
|
|  Q          Q             +E    E   E   E
|-----------------------------------------------|
|-----------------------------------------------|
|-----------------------------------------------|
|--9----------9-------------(9)---9---9---9-----|
|--9----------9-------------(9)---9---9---9-----|
|--7----------7-------------(7)---7---7---7-----|


  +H.                      +E   S S
   |                        |   | |
   /                        /   / /

   S S S S S S S S S S S S  S S E
|-----------------------------------|
|-----------------------------------|
|--7p4-7p4--------------------------|
|----------7p4-7p4------------------|
|------------------7p6p5------------|
|------------------------7--5h6-7---|
|
|  E   E   E   E   Q.           S S
|-----------------------------------|
|------9-------x---7----------------|
|------9-------x---7----------------|
|--9---9-------x---7------------9-9-|
|--9----------------------------9-9-|
|--7----------------------------7-7-|


  W                          +H.                        +E  S S
  |                           |                          |  | |
  /                           /                          /  / /

  Q   E   E  S  S S S  E E    S  S S S S S S S S  S S S  E.   S
|--------------------------|------------------------------------|
|--------------------------|------------------------------------|
|--------------------------|-------7h9p7---7h9p7----7h9p=7----7-|
|------------------------7-|--x--9-------9--------9-------------|
|------------5h=7-5h7-/9---|------------------------------------|
|-7---7\-/7----------------|------------------------------------|
|
| Q   E   E  E    E    E E    E    E   E   E   Q.           S S
|-----7------7-------------|------------------------------------|
|-----7------7-------------|-------9-------x---7----------------|
|----(7)----(7)------------|-------9-------x---7----------------|
|-9---------------9----9-9-|--9----9-------x---7------------9-9-|
|-9-------9-------9----9-9-|--9-----------------------------9-9-|
|-7-------7-------7----7-7-|--7-----------------------------7-7-|


   W
   |
   /

                             ~~~~~~~~~
   H         Q        E.     S
|------------------------------------|
|-10b12-----10b12---[10]---[10]pb12==|
|------------------------------------|
|------------------------------------|
|------------------------------------|
|------------------------------------|
|
|  Q     Q  +E    E   E  E
|--------7--(7)----------------------|
|--------7--(7)----------------------|
|--------7--(7)----------------------|
|--9--------------9---9--9-----------|
|--9--------------9---9--9-----------|
|--7--------------7---7--7-----------|


                      D.S. al Coda &
           C#5   D5    D#5            D5           E5
                                      Gtr III
     E   E  E  E  E  E    E     E     Q.   E +Q.   S S
     |   |  |  |  |  |    |     |     |    |  |    | |
     /   /  /  /  /  /    /     /     /    o  /    / /

                                      Gtr I
 ~~~~~~~~~~~~~~~~~~~~~~~~~~~~~~
    +H.                  +Q           Q.   E +Q.   S S
|----------------------------------||------------------||
|-([10])---------------([10])r-----||------------------||
|----------------------------------||-7----6-(6)---9-9-||
|----------------------------------||-7----6-(6)---9-9-||
|----------------------------------||-5----4-(4)---7-7-||
|----------------------------------||--------------0-0-||
|
|                                     Gtr II
|                                          ~~~~~~
|    E   E  E  E  E  E    E     E     Q.   E +Q.   S S
|----------------------------------||------------------||
|----------------------------------||------------------||
|----------------------------------||-7------------9-9-||
|----9---9-11-11-12-12---13----13--||-7------------9-9-||
|----9---9-11-11-12-12---13----13--||-5----4-(4)---7-7-||
|----7---7--9--9-10-10---11----11--||--------------0-0-||


   Outro
    E5            D5
    H.         +E S S   Q.   E +Q   Q
    |           | | |   |    |  |   |
    /           / / /   /    o  /   o

    Q   Q  E E  E E     Q.   E +Q   E S S
||--------------------|-------------------|
||o-------------------|-------------------|
||--9---9-------9-----|-7----6-(6)----9-9-|
||--9---9-------9-----|-7----6-(6)--7-9-9-|
||o-7---7-------7-----|-5----4-(4)--7-7-7-|
||--0---0--0-0--0-0---|-------------5-0-0-|
|
|   Q   Q  E E  E E     Q.   E +Q   E S S
||--------------------|-------------------|
||o-------------------|-------------------|
||--9---9-------9-----|-7----6-(6)----9-9-|
||--9---9-------9-----|-7----6-(6)--7-9-9-|
||o-7---7-------7-----|-5----4-(4)--7-7-7-|
||--0---0--0-0--0-0---|-------------5-0-0-|


  E5            D5                 E5
  H.         +E S S   Q.   E +Q.   S S
  |           | | |   |    |  |    | |
  /           / / /   /    o  /    / /

  Q   Q  E E  Q       Q.   E +Q.   S S
|-------------------|------------------|
|-------------------|------------------|
|-9---9-------9-----|-7----6-(6)---9-9-|
|-9---9-------9-----|-7----6-(6)---9-9-|
|-7---7-------7-----|-5----4-(4)---7-7-|
|-0---0--0-0--0-----|--------------0-0-|
|
|                          ~~~~~~
| Q   Q  E E  Q       Q.   E +Q.   S S
|-------------------|------------------|
|-------------------|------------------|
|-9---9-------9-----|-7------------9-9-|
|-9---9-------9-----|-7------------9-9-|
|-7---7-------7-----|-5----4-(4)---7-7-|
|-0---0--0-0--0-----|--------------0-0-|


                D5
  H.         +E S S   Q.   E +Q   Q
  |           | | |   |    |  |   |
  /           / / /   /    o  /   o

  Q   Q  E E  E E     Q.   E +Q   E S S
|-------------------|-------------------|
|-------------------|-------------------|
|-9---9-------9-----|-7----6-(6)----9-9-|
|-9---9-------9-----|-7----6-(6)--7-9-9-|
|-7---7-------7-----|-5----4-(4)--7-7-7-|
|-0---0--0-0--0-0---|-------------5-0-0-|
|
| Q   Q  E E  E E     Q.   E +Q   E S S
|-------------------|-------------------|
|-------------------|-------------------|
|-9---9-------9-----|-7----6-(6)----9-9-|
|-9---9-------9-----|-7----6-(6)--7-9-9-|
|-7---7-------7-----|-5----4-(4)--7-7-7-|
|-0---0--0-0--0-0---|-------------5-0-0-|


  E5            D5                 E5
  H.         +E S S   Q.   E +Q.   S S
  |           | | |   |    |  |    | |
  /           / / /   /    o  /    / /

  Q   Q  E E  Q       Q.   E +Q.   S S   3x
|-------------------|--------------------||
|-------------------|-------------------o||
|-9---9-------9-----|-7----6-(6)---9-9---||
|-9---9-------9-----|-7----6-(6)---9-9---||
|-7---7-------7-----|-5----4-(4)---7-7--o||
|-0---0--0-0--0-----|--------------0-0---||
|
|                          ~~~~~~
| Q   Q  E E  Q       Q.   E +Q.   S S   3x
|-------------------|--------------------||
|-------------------|-------------------o||
|-9---9-------9-----|-7------------9-9---||
|-9---9-------9-----|-7------------9-9---||
|-7---7-------7-----|-5----4-(4)---7-7--o||
|-0---0--0-0--0-----|--------------0-0---||


Duration Legend
---------------
W - whole; H - half; Q - quarter; E - 8th; S - 16th; T - 32nd; X - 64th; a - acciaccatura
+ - note tied to previous; . - note dotted; .. - note double dotted
Uncapitalized letters represent notes that are staccato (1/2 duration)
Irregular groupings are notated above the duration line
Duration letters will always appear directly above the note/fret number it represents the
duration for.  Duration letters with no fret number below them represent rests.  Multi-
bar rests are notated in the form Wxn, where n is the number of bars to rest for.  Low
melody durations appear below the staff

Tablature Legend
----------------
 h   - hammer-on
 p   - pull-off
 b   - bend
 pb  - pre-bend
 r   - bend release (if no number after the r, then release immediately)
 /\  - slide into or out of (from/to "nowhere")
 s   - legato slide
 S   - shift slide
  - natural harmonic
[n]  - artificial harmonic
n(n) - tapped harmonic
 ~   - vibrato
 tr  - trill
 T   - tap
 TP  - trem. picking
 PM  - palm muting
\n/  - tremolo bar dip; n = amount to dip
 \n  - tremolo bar down
 n/  - tremolo bar up
/n\  - tremolo bar inverted dip
 =   - hold bend; also acts as connecting device for hammers/pulls
 <>  - volume swell (louder/softer)
 x   - on rhythm slash represents muted slash
 o   - on rhythm slash represents single note slash

Misc Legend
-----------
 |  - bar
||  - double bar
||o - repeat start
o|| - repeat end
*|  - double bar (ending)
 :  - bar (freetime)
 $  - Segno
 &  - Coda
Tempo markers -  = BPM(8/16=s8/s16), where s8 = swing 8ths, s16 = swing 16ths



Some people they call me jack
Some people they call me insane
I'm looking for somebody
And I don't even know her name
I might be looking for you
Wherever you may be
For there is something I've got to do to you honey
And it's between you and me
Now you might think it's funny
Or maybe it's a joke
But you've got plenty of reason to worry honey
'cause you wouldn't stand a hope

There's a killer on the loose again
A killer on the loose
There's a killer on the loose again
A ladykiller on the loose

Now I'm not trying to be nasty
Or I'm not trying to make you scared
But there's a killer on the loose
Or haven't you heard
He'll be walking around this town
Just about midnight
Yes, that's chinatown
That's right
That's right

Now you might think I'm messing
Or he don't exist
But honey I'm confessing
I'm a mad sexual rapist

There's a killer on the loose again
A killer on the loose
There's a killer on the loose again
A ladykiller on the loose

"i'll be standing in the shadows of love
Waiting for you
Don't unzip your zipper
'cause you know I'm jack the ripper
Now don't wail, don't... "

There's a killer on the loose again
Standing in the shadows
A killer on the loose
There's a killer on the loose again
Coming to get you
A ladykiller on the loose
There's a killer on the loose again
Standing in the shadows of love

A killer on the loose
There's a killer on the loose again
That's right jack
A ladykiller on the loose
There's a killer on the loose again
Standing in the shadow
A killer on the loose again, of love
There's a killer on the loose again
Oooh
You better watch out
A killer on the loose
Play that back
Check it back

            
            
Suggest correction
Creating personal tab
Creating personal tab
You can edit any tab online and save it as your Personal.

You can edit, replace or remove any tab part or add personal notes – all changes will be seen only by you.

Personal tabs can be accessed anytime from any device, even offline.
Learn more »
Give kudos to tab author, rate the tab!
1 2 3 4 5
comments
print report bad tab
guest
You may want to rate the tab now too:
select rating
Wanna post a correction for this tab? Suggest correction