Oops, an error
Loading. Please wait.

Rocker bass

version 2
version 2

Whole song

Interactive

1,968 views 3 this week
1 commentread comment
1 2 3 4 5
2 more votes to show rating
add to favorites
×
Save as Personal and add changes to this tab that will be seen only by you. Learn more ›
×
You can save this tab as Personal to edit and correct it or add notes. All changes will be seen only by you. Learn more »
launch autoscroll
font size
0
reset
guitar tuner
edit
Autoscroll
slow
fast
+/-
esc
set tempo
stop
Author
Difficulty
-------------------------------------------------------------------------------
			     THE ROCKER - Thin Lizzy
-------------------------------------------------------------------------------

Tabbed By : BillyBass
e-mail: fkduhduh123@hotmail

Tuning:Standard (EADG)

This is the shortened single version (2:42) of the song, with the solo at approx 2:10 
out. i may add that in l8r if i can be bothered but for now iv marked where it is
any questions, just email

Intro
G|--------------------------------------------------------------------------|
D|--------------------------------------------------------------------------|
A|--------------------------------------------------------------------------|
E|-------------3---5-------------3---5-------------3---5-------------3---5--|
                                                   (Simple no?)

G|----------------------------------------------|
D|----------------------------------------------|
A|------4----------------------4----------------|
E|55-75--5-75-575-3-33/5-55-75--5-75-575-3-33/5-| x2 (last time play a second
                                                     A [5 on the E])
Verse
G|----------------|
D|----------------|
A|----------------|
E|------3-33/5-5--| x3
Straight into....

Chorus (Same as intro 2nd half)
G|----------------------------------------------|
D|----------------------------------------------|
A|------4----------------------4----------------|
E|55-75--5-75-575-3-33/5-55-75--5-75-575-3-33/5-| x2 (again end on a 2nd
                                                     A [5 on the E])
Verse
G|----------------|
D|----------------|
A|----------------|
E|------3-33/5-5--| x8

Chorus
G|----------------------------------------------|
D|----------------------------------------------|
A|------4----------------------4----------------|
E|55-75--5-75-575-3-33/5-55-75--5-75-575-3-33/5-| x2

Break
G|------------------------------------------------------------------------|
D|------------------------------------------------------------------------|
A|3333333-0-----2b-33333333-5-3-00-----2b-3333333-0-----2b-33333333-5-303-|
E|-----------3-5--------------------3-5--------------3-5------------------|

G|----------------|
D|----------------|
A|334-445-556-667-|
E|----------------|

Intro riff again
G|---------------------------------------------------------------------------|
D|---------------------------------------------------------------------------|
A|---------------------------------------------------------------------------|
E|-------------3---5-------------3---5-------------3---5-------------3--3335-|

                         ----->SOLO HERE!!<-----

Outro
G|----------------------------------------------------------------------|
D|----------------------------------------------------------------------|
A|------4----------------3333333-0----2b-33333333-53-00----2b-3333333-0-|
E|55-75--5-75-575-3-33/5-----------3-5------------------3-5-------------|

G|-------------------------------------------------------|
D|--------------------------------2---2---2---2----------|
A|---2b-33333333-5303-334-445-556--2---2---2---2---------|
E|3-5-------------------------------0---0---0---000000/5-|


And thats it....not 2 sure about the end coz its hard 2 here, and the solo shud b coming 
as soon as i can track down a copy of the full song :p
Ne positive feedbak appreciated XD

| b  bend
| /  slide up
| \  slide down
| h  hammer-on
| p  pull-off
| ~  vibrato
| +  harmonic
| x  Mute note
============================================================================
Suggest correction
Creating personal tab
Creating personal tab
You can edit any tab online and save it as your Personal.

You can edit, replace or remove any tab part or add personal notes – all changes will be seen only by you.

Personal tabs can be accessed anytime from any device, even offline.
Learn more »
Give kudos to tab author, rate the tab!
1 2 3 4 5
comments
print report bad tab
1 comment total.
+1 reply
-Tina- 40 Dec 26, 2007 03:09 AM

This is v.good, although should it maybe be the octave higher??

guest
You may want to rate the tab now too:
select rating
Wanna post a correction for this tab? Suggest correction