Oops, an error
Loading. Please wait.

Rosalie bass

version 2
version 2

Whole song

Interactive

5,821 views 18 this week
1 commentread comment
1 2 3 4 5
x 5
add to favorites
×
Save as Personal and add changes to this tab that will be seen only by you. Learn more ›
×
You can save this tab as Personal to edit and correct it or add notes. All changes will be seen only by you. Learn more »
launch autoscroll
font size
0
reset
guitar tuner
backing track
0:00
0:00
edit
Autoscroll
slow
fast
+/-
esc
set tempo
stop
Rosalie (Cowgirls Medley)
This Version by Thin Lizzy (Original Artist: Bob Seger)
Taken from their Live & Dangerous Album this single
released in 1978 reaching number 20 in UK charts.
Bassist Phil Lynott
Tabbed by bass50611 from the original recording
note tuning down a Semitone
so as to play along to record.
Any comments its bass254@btinternet.com.

Intro:
Gb|-------------------|-------------|-------------|-------------|
Db|----NO BASS ON-----|-------------|-------------|-------------|
Ab|----FIRST CHORD----|-------------|-------------|-------------|
Eb|-------------------|------5------|------5------|------5------|

Gb|------------------------------------------------------|
Db|-7----------------------------------------------------|
Ab|--9-7---------------------7-9-7-----------------7-9-7-|
Eb|-----9-55555555-55555-7/9------55555555-55555-7/9-----|

Gb|----------------------------------------------|
Db|-77777777-77777-------------------------------|
Ab|---------------9-7----------------------7-9-7-|
Eb|-------------------9--55555555-55555-7/9------|

Verse:                            (PLAY THIS x 2)
Gb|---------------------------------------------|
Db|--------------------------------------7-4----|
Ab|-----------------------------------------7-4-|
Eb|-55555555---55555555---55555555---5555-------|

                               (PLAY THIS x2)
Gb|-----------------------------------------|
Db|-------------------55-4-------55-4-------|
Ab|-77777777-77777777------7-5-5------7-5-5-|
Eb|-----------------------------------------|
Chorus 1:                        (PLAY THIS x2)
Gb|--------------------------------------------|
Db|-------------------------77777777-77777-----|
Ab|-------------------7-9-7---------------9-7--|
Eb|-55555555-55555-7/9-----------------------9-|

REPEAT VERSE:

Chorus 2:                           (PLAY THIS x2)
Gb|--------------------------------------------|
Db|-77777777-77777-----------------------------|
Ab|---------------9-7--------------------7-9-7-|
Eb|------------------9-55555555-55555-7/9------|

LEAD AND BASS RUN UP INTO SOLO:
Gb|------------------------------------------------------------------|
Db|-7----------------------------------------------------------------|
Ab|-------7-----------7-----5----5----5---------------11-22-33-44-55-|
Eb|-------------5-------------5----5----5---5-00-33-44---------------|

FOR SOLO ~ REPEAT CHORUS 1:

REPEAT VERSE:

CHORUS 3:
Gb|--------------------------------------------|
Db|-77777777-77777-----------------------------|
Ab|---------------9-7--------------------7-9-7-|
Eb|------------------9-55555555-55555-7/9------|

Gb|--------------------------------------|
Db|-77777777-77777-----------------------|
Ab|---------------9-7--------------------|
Eb|------------------9-55555555-55555555-|

BRIDGE:        (PLAY THIS x5)
Gb|----------------------------|
Db|----------------------------|
Ab|-9-9---7-7---5---4----------|
Eb|--------------------7---5-5-|

Gb|-----------------------------------------------------------------|
Db|-----------------------------------------------------------------|
Ab|-5-5----5-4-4---4---2-2---2--------5-5----5-4-4---4---2-2---2----|
Eb|-------5-------5---------2---5-5---------5-------5---------2---5-|

OUTRO:
Gb|--------------------------------------------|
Db|---------------------------------7-4--------|
Ab|-------------------------------------7-4----|
Eb|--------5--------5--------5---------------5-|

Think Ive got it right ~ have fun!

            
            
Suggest correction
Creating personal tab
Creating personal tab
You can edit any tab online and save it as your Personal.

You can edit, replace or remove any tab part or add personal notes – all changes will be seen only by you.

Personal tabs can be accessed anytime from any device, even offline.
Learn more »
comments
print report bad tab
1 comment total.
0 reply
sierra7.ms 10 Aug 02, 2016 04:19 AM

Great! Been trying to find this for AGES!

guest
You may want to rate the tab now too:
select rating
Wanna post a correction for this tab? Suggest correction