Oops, an error
Loading. Please wait.

Showdown bass

version 2
version 2

Whole song

Interactive

1,246 views 3 this week
no commentswrite comment
1 2 3 4 5
2 more votes to show rating
add to favorites
×
Save as Personal and add changes to this tab that will be seen only by you. Learn more ›
×
You can save this tab as Personal to edit and correct it or add notes. All changes will be seen only by you. Learn more »
launch autoscroll
font size
0
reset
guitar tuner
edit
Autoscroll
slow
fast
+/-
esc
set tempo
stop
Intro:                                                 [x2]
|-7--5---------------------|------------------|--------------------------|
|--------------------------|------------------|--------------------------|
|-------5-3------5--3--5-5-|-5--3---5--3--5-5-|-5--3--5-3------5--3--5-5-|
|-----------5-3------------|------------------|-----------5-3------------|

Verse: x4
|--------------------------|
|--------------------------|
|-5--3--5-3------5--3--5-5-|
|-----------5-3------------|

Chorus:
|------------------|---------------------|
|------------------|---------------------|
|-3h4h5-3h4h5------|-3h4h5-3h4h5-------5-|
|-------------2--0-|-------------2--0----|

|------------------|---------------------|
|------------------|---------------------|
|-3h4h5-3h4h5------|-3h4h5-3h4h5-------2-|
|-------------2--0-|-------------2--0----|

Verse:	x4
Chorus:
Bridge: x2
|-------------------------------|
|-------------------------------|
|---------------------------3-3-|
|-3h4h5-3h4h5---3h4h5-3h4h5-----|

Verse/solo:	x4
Chorus:
Verse:	x4
Chorus:
Build up:
Chorus:

There are a few fills that he throws in just about every verse. They aren’t too crazy 
here is where I give up. I don’t want to. However, I just heard the song a thought, I’d 
to learn that main lick. I did that and more so I’m stoppin here. Hope it helps someone out there.
Suggest correction
Creating personal tab
Creating personal tab
You can edit any tab online and save it as your Personal.

You can edit, replace or remove any tab part or add personal notes – all changes will be seen only by you.

Personal tabs can be accessed anytime from any device, even offline.
Learn more »
Give kudos to tab author, rate the tab!
1 2 3 4 5
comments
print report bad tab
guest
You may want to rate the tab now too:
select rating
Wanna post a correction for this tab? Suggest correction