Oops, an error
Loading. Please wait.

Soldier Of Fortune tab

version 3
version 3

Whole song

Interactive

2,814 views 3 this week
no commentswrite comment
1 2 3 4 5
1 last vote to show rating
add to favorites
×
Save as Personal and add changes to this tab that will be seen only by you. Learn more ›
×
You can save this tab as Personal to edit and correct it or add notes. All changes will be seen only by you. Learn more »
launch autoscroll
font size
0
reset
how to read this tab
guitar tuner
backing track
0:00
0:00
edit
Autoscroll
slow
fast
+/-
esc
set tempo
stop
Author
Difficulty
intermediate
-------------------------------------------------------------------------------
                             Soldier of Fortune- Thin Lizzy
-------------------------------------------------------------------------------
Tabbed by: Taig
Email: taigfos@gmail.com

Tuning: standard

note: guitar 1(scott gorham) plays low harmony (for a change!), and also the solo,
guitar 2 (brian robertson) plays high harmony

intro: G         D         C    C    D

Main riff
  High harmony
e|---------------------------------------------------------------------------|
B|-------8-8--8--------------------------------------------------------------|
G|-5/7-7--------7-5---7p5\4---5-7-5-4--4-------------------------------------|
D|---------------------------------------5-4~~~------------------------------|
A|---------------------------------------------------------------------------|
E|---------------------------------------------------------------------------|

e|---------------------------------------------------------------------------|
B|-------8-8--8--------------------------/8-7~~~-----------------------------|
G|-5/7-7--------7-5---7p5\4---5-7-5-5--5-------------------------------------|
D|---------------------------------------------------------------------------|
A|---------------------------------------------------------------------------|
E|---------------------------------------------------------------------------|

Low harmony
e|---------------------------------------------------------------------------|
B|---------------------------------------------------------------------------|
G|-------7-7--7--------------------------------------------------------------|
D|-7/9-9--------9-7---9p7\5---7-7/9-7-5--5-----------------------------------|
A|-----------------------------------------7-5~~~----------------------------|
E|---------------------------------------------------------------------------|

e|---------------------------------------------------------------------------|
B|---------------------------------------------------------------------------|
G|-------7-7--7--------------------------------------------------------------|
D|-7/9-9--------9-7---9p7\5---7-7/9-7-7--7-9-7~~~----------------------------|
A|---------------------------------------------------------------------------|
E|---------------------------------------------------------------------------|

Verse   repeat 4 times
guitar 2 (high one) (brian)
e|----------------------------------------------------------------------------|
B|----------------------------------------------------------------------------|
G|-------7-7--5-5---5-5---7-7-------------------------------------------------|
D|-5-5---7-7--5-5---5-5---7-7-------------------------------------------------|
A|-5-5---5-5--3-3---3-3---5-5-------------------------------------------------|
E|-3-3------------------------------------------------------------------------|

guitar 1(low one ) (scott)
e|---------------------------------------------------------------------------|
B|-8-8-----------------------------------------------------------------------|
G|-7-7----7-7--5-5---5-5---7-7-----------------------------------------------|
D|-5-5----7-7--5-5---5-5---7-7-----------------------------------------------|
A|--------5-5--3-3---3-3---5-5-----------------------------------------------|
E|---------------------------------------------------------------------------|

Pre-chorus
High harmony
e|---------------------------------------------------------------------------|
B|---------------------------------------------------------------------------|
G|-7-----4------5-7-5-4-----5-7-5-4--4---------------------------------------|
D|---5h7---7-5----------7-5------------5-4~~~--------------------------------|
A|---------------------------------------------------------------------------|
E|---------------------------------------------------------------------------|

e|---------------------------------------------------------------------------|
B|---------------------------------------------------------------------------|
G|-7-----4------5-7-5-4-----5-7-5-4--5-7/9-7~~~----7-9-----------------------|
D|---5h7---7-5----------7-5--------------------------------------------------|
A|---------------------------------------------------------------------------|
E|---------------------------------------------------------------------------|

Low harmony
e|---------------------------------------------------------------------------|
B|---------------------------------------------------------------------------|
G|-4--------------4------------4---------------------------------------------|
D|-------5------7---7-5------7---7-5--5--------------------------------------|
A|---5h7---7-5----------7-5-------------7-5~~~-------------------------------|
E|---------------------------------------------------------------------------|

e|---------------------------------------------------------------------------|
B|---------------------------------------------------------------------------|
G|-4--------------4------------4---------------------------------------------|
D|-------5------7---7-5------7---7-5--7-7/9-7~~~-----7-9---------------------|
A|---5h7---7-5----------7-5--------------------------------------------------|
E|---------------------------------------------------------------------------|

Chorus
repeat this part 3 times
e|---------------------------------------------------------------------------|
B|---------------------------------------------------------------------------|
G|---------------------------------------------------------------------------|
D|----------------------4----4h5--4h5-7--5h7/9~~~----------------------------|
A|-------5-----5h7--5h7----7-------------------------------------------------|
E|-3/5/7-----7---------------------------------------------------------------|

then this once
high harmony
e|----12h15p12----12-------15p12----12---------------------------------------|
B|-15----------15----15-12-------15----15--12-15-12----12--------------------|
G|--------------------------------------------------14----14-12-14-12----12--|
D|--------------------------------------------------------------------14-----|
A|---------------------------------------------------------------------------|
E|---------------------------------------------------------------------------|

e|---------------------------------------------------------------------------|
B|---------------------------------------------------------------------------|
G|----------------12----------------12---------------------------------------|
D|-14-12-14-12----------12h14-12-14----12-14~~~------------------------------|
A|-------------14----14------------------------------------------------------|
E|---------------------------------------------------------------------------|

low harmony
e|----12h15p12----12----------------------------------------------------------|
B|-15----------15----15-12-15p12----12----------------------------------------|
G|-------------------------------14----14-12-14-12----12----------------------|
D|-------------------------------------------------14----14-12-14-12----14----|
A|-------------------------------------------------------------------14----14-|
E|----------------------------------------------------------------------------|

e|---------------------------------------------------------------------------|
B|---------------------------------------------------------------------------|
G|-------------------------------------12-12~~~------------------------------|
D|-------------------------12----12h14---------------------------------------|
A|-12----12----12h14p12-14----14---------------------------------------------|
E|----15----12---------------------------------------------------------------|

right. solo.
guitar 2 (Brian) does backing chords which are: G D C C D
guitar 1 (Scott) does:
e|--------------------------------------------15---12------------------------|
B|-15b17---15br17-12-----------------------------15------15b17--15-12-15~~~--|
G|--------------------14br16-12----12~~~---12--------------------------------|
D|------------------------------14-------------------------------------------|
A|---------------------------------------------------------------------------|
E|---------------------------------------------------------------------------|

                                        ----PM--------------------------------|
e|----------------------------------------------------------------------------|
B|-15b17---15br17-12----------------------------------------------------------|
G|-------------------14br16-12-----------------------------11h12p11~~---------|
D|-----------------------------12h14~~~--------------12h14-----------14-12-14-|
A|---------------------------------------------12h14--------------------------|
E|---------------------------------------12h15--------------------------------|

e|--------------------------------------------------------------15----17b19--|
B|--------------------------------------------------------15/17----17--------|
G|-12h14b16---11h12p11-------------------------------------------------------|
D|--------------------14--12h14p12\10--10h12p10\9----------------------------|
A|------------------------------------------------10~~~----------------------|
E|---------------------------------------------------------------------------|

e|-17b19--19-17-17b19--15h17p15\14--14h15p14\12-------------------------------|
B|----------------------------------------------15b17---12h13p12--------------|
G|---------------------------------------------------------------1412h14p12\--|
D|----------------------------------------------------------------------------|
A|----------------------------------------------------------------------------|
E|----------------------------------------------------------------------------|

e|---------------------------------------------------------------------------|
B|---------------------------------------------------------------------------|
G|11----11~~~----------------------------------------------------------------|
D|---14----------------------------------------------------------------------|
A|---------------------------------------------------------------------------|
E|---------------------------------------------------------------------------|

repeat main riff 2x, pre chorus 2x, then finish off with chorus

Taig

************************************

| /   slide up
| \   slide down
| h   hammer-on
| p   pull-off
| ~   vibrato
| +   harmonic
| x   Mute note
| b   Bend
| pb  Pre-bend
| br  Bend release
| pbr Pre-bend release
| brb Bend release bend
************************************

            
            
Suggest correction
Creating personal tab
Creating personal tab
You can edit any tab online and save it as your Personal.

You can edit, replace or remove any tab part or add personal notes – all changes will be seen only by you.

Personal tabs can be accessed anytime from any device, even offline.
Learn more »
Give kudos to tab author, rate the tab!
1 2 3 4 5
comments
print report bad tab
guest
You may want to rate the tab now too:
select rating
Wanna post a correction for this tab? Suggest correction