Oops, an error
Loading. Please wait.

The Boys Are Back In Town tab

version 1
version 1

Whole song

33,766 views 33 this week
1 commentread comment
1 2 3 4 5
x 7
add to favorites
×
Save as Personal and add changes to this tab that will be seen only by you. Learn more ›
×
You can save this tab as Personal to edit and correct it or add notes. All changes will be seen only by you. Learn more »
launch autoscroll
font size
0
reset
how to read this tab
guitar tuner
backing track
0:00
0:00
edit
Autoscroll
slow
fast
+/-
esc
set tempo
stop
Author
Unregistered
THE BOYS ARE BACK IN TOWN
As recorded by Thin Lizy
(From the 1976 Album JAILBREAK) 

Gtr I (Eb Ab Db Gb Bb Eb) - 'Brian Robertson - Overdriven electric'
Gtr II (Eb Ab Db Gb Bb Eb) - 'Scot Gorham - Overdriven electric'
Gtr III (Eb Ab Db Gb Bb Eb) - 'Overdriven electric'

[Intro]
                  PM-----------|              PM----|                 PM|
                  |-3--|                      |-3-|
   H..       E    E  E E E E E E E E   +H     E E E E E   +H      +E  E E E
e|-------------|---------------------|------------------|-------------------|
B|-------------|---------------------|------------------|-------------------|
G|-2-----------|-------------------4-|-(4)------------7-|-(7)-----(7)-----2-|
D|-2---------0-|--4--4-4-2---2-2---4-|-(4)----4-4-4-4-7-|-(7)-----(7)-----2-|
A|-0-----------|-----------4-------2-|-(2)------------5-|-(5)-----(5)-0-0-0-|
E|-------------|---------------------|------------------|-------------------|

                   PM-----------|              PM|                   PM|
                   |-3--|
   +H..       E    E  E E E E E E E E   +H     E E E E   +H      +E  E E E
e|--------------|---------------------|----------------|-------------------|
B|--------------|---------------------|----------------|-------------------|
G|-(2)----------|-------------------4-|-(4)------4---7-|-(7)-----(7)-----2-|
D|-(2)--------0-|--4--4-4-2---2-2---4-|-(4)----4-----7-|-(7)-----(7)-----2-|
A|-(0)----------|-----------4-------2-|-(2)----------5-|-(5)-----(5)-0-0-0-|
E|--------------|---------------------|----------------|-------------------|

                   PM-----------|
                   |-3--|
   +H..       E    E  E E E E E E E E   +H.      E E   +H      +E  E E E
e|--------------|---------------------|--------------|-------------------|
B|--------------|---------------------|--------------|-------------------|
G|-(2)----------|-------------------4-|-(4)--------7-|-(7)-----(7)-----2-|
D|-(2)--------0-|--4--4-4-2---2-2---4-|-(4)--------7-|-(7)-----(7)-----2-|
A|-(0)----------|-----------4-------2-|-(2)--------5-|-(5)-----(5)-0-0-0-|
E|--------------|---------------------|--------------|-------------------|

                   PM-----------|               PM
                   |-3--|
   +H..       E    E  E E E E E E E E   +H     +E  E E E   +H..       E
e|--------------|---------------------|------------------|--------------|
B|--------------|---------------------|------------------|--------------|
G|-(2)----------|-------------------4-|-(4)----(4)-4---7-|-(7)----------|
D|-(2)--------0-|--4--4-4-2---2-2---4-|-(4)----(4)-4---7-|-(7)----------|
A|-(0)----------|-----------4-------2-|-(2)----(2)-----5-|-(5)--------0-|
E|--------------|---------------------|------------------|--------------|

[Verse]
     H     +E  E E E   +E  E E E  E E E E   +H     +E  E E E   +H     +E  E E E
e|------------------|-----4------4-------|------------------|------------2---4-|
B|o-----------------|-----5------5-5---7-|-(7)----(7)-------|------------2---5-|
G|--2-----(2)-----6-|-(6)--------4-4---7-|-(7)----(7)-7---4-|-(4)----(4)-----4-|
D|--2-----(2)-----6-|-(6)--------------7-|-(7)----(7)-----4-|-(4)----(4)-------|
A|o-0-----(0)-0-0-4-|-(4)-----4--------5-|-(5)----(5)-----4-|-(4)----(4)-------|
E|------------------|--------------------|--------------0-2-|-(2)----(2)-------|

   +H     +E  E E E   +E  E Q   Q   E E   +Q   Q   E E E E   +H      E E E E
e|-(4)----(4)-4-----|-------2---------2-|-(2)--2---2-2---2-|-(2)-----2-2------|
B|-(5)----(5)-5-----|-----------------3-|-(3)--3---3-3---3-|-(3)-----3-3------|
G|-(4)----(4)-------|-----------2-----2-|-(2)--2---------2-|-(2)-----------2--|
D|----------------4-|-(4)---------------|--------------4-2-|-(2)-----------2--|
A|----------------4-|-(4)---------------|------------------|---------------0--|
E|----------------2-|-(2)-2-------------|------------------|------------------|

   +H      E E E E   +E  E E E  E E E E
e|-----------------|-----4--------4-----|
B|-----------------|-----5------5-5---7-|
G|-(2)-----2-----6-|-(6)--------4-----7-|
D|-(2)-----2-2---6-|-(6)-----6--------7-|
A|-(0)-----0---0-4-|-(4)-----4----------|
E|-----------------|--------------------|

   +H     +E  Q     E    +Q.     E  E  E E E
e|--------------------|-----------------------|
B|-(7)----(7)-7---/10-|-(10)-------10------9--|
G|-(7)----(7)-7---/10-|-(10)----10---------9--|
D|-(7)----(7)-7---/10-|-(10)----10---------9--|
A|--------------------|---------------12------|
E|--------------------|-----------------------|

   +H     +E  E E E   +H     +E  E E E   +H     +E  E E E   +H     E E E E
e|------------------|------------2---2-|-(2)----(2)-2-----|----------2------||
B|-(9)----(9)-9-----|------------2---3-|-(3)----(3)-3---3-|-(3)----3--------||
G|-(9)----(9)-9-----|----------------2-|-(2)----(2)-----2-|-(2)----2--------||
D|-(9)----(9)---x-4-|-(4)----(4)-------|----------------2-|-(2)----2---4-2--||
A|--------------x-4-|-(4)----(4)-------|------------------|--------------0--||
E|----------------2-|-(2)----(2)-------|------------------|-----------------||

[Chorus]
   H    H      +E  E a Q  E  E  E E   +H     +E  E E E   +H.      E E
e|-----------|----------------------|------------------|--------------|
B|-----------|-------2h3----(0)-----|------------------|--------------|
G|-2----2----|-(2)-2---2----------4-|-(4)----(4)-x-x-7-|-(7)--------2-|
D|-2----2----|-(2)-2-2h4--2-------4-|-(4)----(4)-x-x-7-|-(7)--------2-|
A|-0----0----|-(0)--------------0-2-|-(2)----(2)-----5-|-(5)------0-0-|
E|-----------|----------------------|------------------|--------------|

                                                             PM|
   W          +E  E a Q  E E E E   +H.      E E   +H     +E  E E E
e|----------|--------------------|--------------|------------------|
B|----------|-------2h3----------|------------7-|-(7)----(7)-------|
G|-2--------|-(2)-2---2--------4-|-(4)--------7-|-(7)----(7)-----2-|
D|-2--------|-(2)-2-2h4--2-2---4-|-(4)--------7-|-(7)----(7)-----2-|
A|-0--------|-(0)------------0-2-|-(2)--------5-|-(5)----(5)-0-0-0-|
E|----------|--------------------|--------------|------------------|

                                                                  |-3-|
   +W           +E   E Q  E E E E   +H     E E E E   +H     +E  E E E E
e|------------|-------------------|----------------|--------------------|
B|------------|--------3------3---|--------------7-|-(7)----(7)---------|
G|-(2)--------|-(2)----2--2-2-2-4-|-(4)----4-x---7-|-(7)----(7)-------6-|
D|-(2)--------|-(2)----4--2-2-4-4-|-(4)----4-x---7-|-(7)----(7)-7-7h9-7-|
A|-(0)--------|-(0)--0-0--0-0---2-|-(2)----2-----5-|-(5)----(5)-7-7h9---|
E|------------|-------------------|----------------|--------------------|

 [Guitar Break]
              |-3-|              |-3-|              |-3-|   |-3-| |-3-|
   Q.   E E E E E E   Q.   E E E E E E   Q.   E E E E E E   Q Q Q Q Q Q
e|------------------|------------------|------------------|-------------|
B|------------------|------------------|------------------|-------------|
G|-6--------------6-|-6--------------6-|-9--------------6-|-7-7-7-7-6---|
D|-7----7---7-7h9-7-|-7----7---7-7h9-7-|-9----7---7-7h9-7-|-9-9-9-9-7-9-|
A|------0---7-7h9---|------0---7-7h9---|------0---7-7h9---|-----------9-|
E|------------------|------------------|------------------|-------------|
 
              |-3-|              |-3-|
   Q.   E E E E E E   Q.   E E E E E E
e|------------------|------------------|
B|------------------|------------------|
G|-6--------------6-|-6--------------6-|
D|-7----7---7-7h9-7-|-7----7---7-7h9-7-|
A|------0---7-7h9---|------0---7-7h9---|
E|------------------|------------------|

                   _______________________
                    |1.
              |-3-|     |--3---| |-3--|
   Q.   E E E E E E     Q    Q Q Q  Q Q
e|------------------|---------------------||
B|------------------|--------------------o||
G|-9--------------6-|---7b9--7-6----------||
D|-9----7---7-7h9-7-|---9b11-9-9-7--2-0---||
A|------0---7-7h9---|------------7\-4-2--o||
E|------------------|---------------------||
 |
 |Gtr III               |--3---| |-3--|
 | W                  a Q    Q Q Q  Q Q
e|------------------|---------------------||
B|------------------|-3-5----3-3-3--2----o||
G|------------------|-----------------4---||
D|------------------|---------------------||
A|------------------|--------------------o||
E|------------------|---------------------||

 ______________
  |2.
   |-3-| |-3-|   |-3-| |-3-| |-3-| |-3-|   |-3-| |-3-| |-3-|
   Q Q Q Q Q Q   E E E E E E E E E E E E   E E E E E E Q Q Q
e|-------------|-3-3-3-3-3-3-3-3-3-3-3-3-|-2-2-2-2-2-2-2-2---||
B|-------------|-3-3-3-3-3-3-3-3-3-3-3-3-|-3-3-3-3-3-3-3-3---||
G|-7-7-7-7-6---|-2-2-2-2-2-2-2-2-2-2-2-2-|-2-2-2-2-2-2-2-2---||
D|-9-9-9-9-7-9-|-0-0-0-0-0-0-0-0-0-0-0-0-|-0-0-0-0-0-0-0-0---||
A|-----------9-|-------------------------|-----------------0-||
E|-------------|-------------------------|-------------------||


[Bridge]
   Gtr I
    H.         E E   +H     +E  E E E   +H     +E  E E E   +E  E E E +E  E E E
e|-----------------|----------------2-|-(2)----(2)-2---2-|-(2)-2---------2------|
B|-----------------|----------------3-|-(3)----(3)-3---3-|-(3)-3---3-(3)-3------|
G|-----------------|----------------2-|-(2)----(2)-----2-|-(2)---2-2-(2)--------|
D|-----------------|----------------4-|-(4)----(4)-----2-|-(2)---2--------------|
A|-/4------------4-|-(4)----(4)-x-x-2-|-(2)----(2)-----2-|-(2)---2-----------4--|
E|-------------0-2-|-(2)----(2)-x-x---|--------------0-0-|-(0)-------------0-2--|

            PM-----------------------|
            |-3-| |-3-|    |-3-| |-3-| |-3-|       |-3-| |-3-| |-3-| |-3-|
   +Q   E E E E E E E E    E E E E E E E E E E E   E E E E E E E E E E E E
e|----------------------|------------------------|-3-3-3-3-3-3-3-3-3-3-3-3--|
B|----------------------|------------------------|-3-3-3-3-3-3-3-3-3-3-3-3--|
G|----------------------|------------------------|-2-2-2-2-2-2-2-2-2-2-2-2--|
D|----------------4-4-4-|--4-4-4-----4-4-------0-|-0-0-0-0-0-0-0-0-0-0-0-0--|
A|-(4)--4-4-4-4-4-------|--------4-4-----4-4-x---|--------------------------|
E|-(2)--2---------------|----------------2-2-x---|--------------------------|

                         ~~
   |--3--| |-3-| |-3-|
   E E   E E E E Q Q Q   H.         E E
e|-2-2---2-2-2-2-2-2---|----------------|
B|-3-3---3-3-3-3-3-3---|----------------|
G|-2-2---2-2-2-2-2-2---|----------------|
D|-0-0---0-0-0-0-0-0---|-6--------------|
A|-------------------0-|-4------------4-|
E|---------------------|------------0-2-|

   +H.         E E   +H        +E  E E E
e|---------------2-|-(2)-------(2)-2---2--|
B|---------------3-|-(3)-------(3)-3---3--|
G|---------------2-|-(2)-------(2)-----2--|
D|-------------x-4-|-(4)-------(4)---4-2--|
A|-(4)---------x-2-|-(2)-------(2)--------|
E|-(2)-------------|-------------------0--|

                                PM-------------------------------|
                                |-3-| |-3-|    |--3--| |-3-| |-3-|
   +H        +E  E E E   +H     E E E E E E    E   E E E E E E E E E E
e|-(2)-------(2)-------|--------------------|---------------------------||
B|-(3)-------(3)-3-----|--------------------|---------------------------||
G|-(2)-------(2)-------|--------------------|---------------------------||
D|-(2)-------(2)-------|--------4-4---------|----------4-4-4-4-4-4-4----||
A|-----------------0-4-|-(4)--------4-------|--4---4-4-------4-4-4-4----||
E|-(0)-------(0)---0-2-|-(2)----------2-2-2-|----------------2-2-2-2-2/-||

     H        E  E  E E   +H     +E  Q    E   +H     E E E E
e|----------------------|-------------------|----------2-----|
B|-(10)---------10----9-|-(9)----(9)-9\-----|--------2-----7-|
G|-(10)------10-------9-|-(9)----(9)-9\-----|--------------7-|
D|-(10)------10----10-9-|-(9)----(9)------4-|-(4)----------7-|
A|----------------------|-----------------4-|-(4)------------|
E|----------------------|-----------------2-|-(2)----2-------|

   +E  E  Q    E E E  E    +H       +E  E E E
e|-------10----------10-|-(10)-----(10)---------||
B|-(7)-----------7-7--7-|--(7)------(7)-7-------||
G|-(7)----------------7-|--(7)------(7)---------||
D|-(7)-7-------7------7-|--(7)------(7)---------||
A|--------------------9-|--(9)------(9)---9-0---||
E|----------------------|-----------------------||
 
              PM------------------------------------------------------|
    H     +E  E E E   +W               +H.          E  E   +H.      E E
e|------------------|----------------|-------------------|---------------|
B|-(7)----(7)-------|----------------|-------------------|---------------|
G|-(7)----(7)-----2-|-(2)------------|-(2)---------------|---------------|
D|-(7)----(7)-----2-|-(2)------------|-(2)------------/4-|-(4)--------7--|
A|-(5)----(5)-0-0-0-|-(0)------------|-(0)----------0-/2-|-(2)--------5--|
E|------------------|----------------|-------------------|---------------|
 
         PM------------------------------------------------------------|
   +Q.   E E E E E   +W            +H..             E   +H..       E   +W
e|-----------------|-------------|--------------------|--------------|--------||
B|-----------------|-------------|--------------------|--------------|--------||
G|-----------------|-------------|--------------------|--------------|--------||
D|-(7)-------7---2-|-(2)---------|-(2)--------------4-|-(4)--------7-|-(7)----||
A|-(5)---7s9---9-0-|-(0)---------|-(0)--------------2-|-(2)--------5-|-(5)----||
E|-----------------|-------------|--------------------|--------------|--------||

[Interlude]
     Gtrs I, II
     ~~              ~                             ~
     H.      +E  E   W          Q.   E +Q   Q    a W          Q.   E +Q   Q
e|----------------|----------|----------------|------------|----------------|
B|o-5-------(5)s2-|-2--------|-2----3-(3)--5--|------------|-2----3-(3)--5--|
G|--6-------(6)s2-|-2--------|-0----2-(2)--4--|---2--------|-0----2-(2)--4--|
D|----------------|----------|----------------|-2h4--------|----------------|
A|o---------------|----------|----------------|------------|----------------|
E|----------------|----------|----------------|------------|----------------|

                                                   |-3-|
   a W          W          W            H    +E  E E E E
e|------------|----------|-----------||-------------------|
B|------------|-3--------|----------o||-------------------|
G|---2--------|-2--------|-4---------||-4----(4)-------6--|
D|-2h4--------|-0--------|-2---------||-2----(2)-7-7h9-7--|
A|------------|----------|-2--------o||-2----(2)-7-7h9----|
E|------------|----------|-0---------||-0----(0)----------|


[Outro]
              |-3-|              |-3-|              |-3-|   |-3-| |-3-|
   Q.   E E E E E E   Q.   E E E E E E   Q.   E E E E E E   Q Q Q Q Q Q
e|------------------|------------------|------------------|-------------|
B|------------------|------------------|------------------|-------------|
G|-6--------------6-|-6--------------6-|-9--------------6-|-7-7-7-7-6---|
D|-7----7---7-7h9-7-|-7----7---7-7h9-7-|-9----7---7-7h9-7-|-9-9-9-9-7-9-|
A|------0---7-7h9---|------0---7-7h9---|------0---7-7h9---|-----------9-|
E|------------------|------------------|------------------|-------------|
|-Riff 1                                                   end Riff 1 -|

 Gtr III
 |                                                                |-3-|
 | W                  W                  W                  H     Q Q Q
e|------------------|------------------|------------------|-------------|
B|------------------|------------------|------------------|-------------|
G|------------------|------------------|------------------|-------------|
D|------------------|------------------|------------------|---------2h4-|
A|------------------|------------------|------------------|-------------|
E|------------------|------------------|------------------|-------------|

              |-3-|              |-3-|              |-3-|   |-3-| |-3-|
   Q.   E E E E E E   Q.   E E E E E E   Q.   E E E E E E   Q Q Q Q Q Q
 |------------------|------------------|------------------|-------------|
e|------------------|------------------|------------------|-------------|
B|-2--------------2-|-2--------------2-|-4--------------2-|-4-4-4-4-2---|
G|----------2-2h4---|----------2-2h4---|----------2-2h4---|-----------4-|
D|------0-----------|------0-----------|------0-----------|-------------|
A|------------------|------------------|------------------|-------------|
E|- Riff 2                                                   end Riff 2-|

 Repeat Riff 2 to fade
  Gtr III
              |-3-|              |-3-|              |-3-|   |-3-| |-3-|
   Q.   E E E E E E   Q.   E E E E E E   Q.   E E E E E E   Q Q Q Q Q Q
 |------------------|------------------|------------------|-------------|
e|-5--------------5-|-5--------------5-|-5--------------5-|-7-7-7-7-5---|
B|------6---6-6h7---|------6---6-6h7---|------6---6-6h7---|-----------7-|
G|------------------|------------------|------------------|-------------|
D|------------------|------------------|------------------|-------------|
A|------------------|------------------|------------------|-------------|
E|- Riff 3                                                   end Riff 3-|

 Repeat Riff 3 to fade
               |--3--|               |--3--|
    Q.   E E E E  E  E    Q.   E E E E  E  E
e|---------------------|---------------------|
B|-10---------------10-|-10---------------10-|
G|-------9---9-9h11----|-------9---9-9h11----|
D|---------------------|---------------------|
A|---------------------|---------------------|
E|---------------------|---------------------|
 |- Riff 4
               |--3--|    |--3--|  |--3--|
    Q.   E E E E  E  E    Q  Q  Q  Q  Q  Q
e|---------------------|-------------------|
B|-10---------------10-|-12-12-12-12-10----|
G|-------9---9-9h11----|----------------11-|
D|---------------------|-------------------|
A|---------------------|-------------------|
E|---------------------|-------------------|
                              end Riff 4 -|

 Repeat Riff 4 to fade
                  |--3--|                  |--3--|
    Q.    E E  E  E  E  E    Q.    E E  E  E  E  E
e|------------------------|------------------------|
B|-14------------------14-|-14------------------14-|
G|-------14---14-14h16----|-------14---14-14h16----|
D|------------------------|------------------------|
A|------------------------|------------------------|
E|------------------------|------------------------|
|- Riff 5
 
                  |--3--|    |--3--|  |--3--|
    Q.    E E  E  E  E  E    Q  Q  Q  Q  Q  Q
e|------------------------|-------------------|
B|-14------------------14-|-15-15-15-15-14----|
G|-------14---14-14h16----|----------------16-|
D|------------------------|-------------------|
A|------------------------|-------------------|
E|------------------------|-------------------|
                                  end Riff 5-|

  Riff 5 repeated to fade
                    |--3--|                  |--3--|
      Q.    E E  E  E  E  E    Q.    E E  E  E  E  E
e||-------------------------|------------------------|
B||o-17------------------17-|-17------------------17-|
G||--------18---18-18h19----|-------18---18-18h19----|
D||-------------------------|------------------------|
A||o------------------------|------------------------|
E||-------------------------|------------------------|
 
                  |--3--|           |--3--|  |--3--|
    Q.    E E  E  E  E  E    a      Q  Q  Q  Q  Q  Q
e|------------------------|---------------------------||
B|-17------------------17-|-17b19==19-19-19-19-19----o||
G|-------18---18-18h19----|-----------------------19--||
D|------------------------|---------------------------||
A|------------------------|--------------------------o||
E|------------------------|---------------------------||

************************************

| PM   Palm mute
| (n)  Ghost note
| /    Slide up
| x    Dead note
| h    Hammer-on
| b    Bend
| \    Slide down
| ~    Vibrato

************************************

            
            
Suggest correction
Creating personal tab
Creating personal tab
You can edit any tab online and save it as your Personal.

You can edit, replace or remove any tab part or add personal notes – all changes will be seen only by you.

Personal tabs can be accessed anytime from any device, even offline.
Learn more »
comments
print report bad tab
1 comment total.
-1 reply
potato 36 Jun 22, 2005 08:00 PM

this sux balls i ask for a tab and get this ***!

guest
Wanna post a correction for this tab? Suggest correction