Oops, an error
Loading. Please wait.

The Boys Are Back In Town Live bass

version 5
version 5
289 views 1 this week
no commentswrite comment
1 2 3 4 5
2 more votes to show rating
add to favorites
×
Save as Personal and add changes to this tab that will be seen only by you. Learn more ›
×
You can save this tab as Personal to edit and correct it or add notes. All changes will be seen only by you. Learn more »
launch autoscroll
font size
0
reset
guitar tuner
backing track
0:00
0:00
edit
Autoscroll
slow
fast
+/-
esc
set tempo
stop
Author
Difficulty
The Boys Are Back In Town (Live)
Thin Lizzy’s live version originally from The 1976 Album Jailbreak. 
Bass performance Phil Lynott. Tab bass50611. Welcome to my tab. This 
live version from the album Live And Dangerous is second in a trio 
medley. I used to play exactly this on stage with my 3 piece band 
many, many moons ago. Comments at bass254@btinternet.com 

Intro:                                            (Play This x4)
Gb|--------------|----------------------------------------------
Db|-LEAD IN FROM-|----------------------------------------------
Ab|-COWBOY SONG--|-0--0--0--0---9-9-7-7-9------------5--5--5--5-
Eb|--------------|-------------------9----7--7--7--7------------

Verse:
Gb|----------------------------------------------------------
Db|----------------------------------------------------------
Ab|-------------------------5--5--5--5------------4--4--4--4-
Eb|-5--5--5--5---4--4--4--4------------2--2--2--2------------

Gb|---------------------------------------------------------
Db|----------------0-1-2--2--2--2---7--7--7--7---6--6--6--6-
Ab|------------2-4------------------------------------------
Eb|-2--2--2--2----------------------------------------------

Gb|----------------------------------------------------------------
Db|------------3--3--3--3---------------------------0-1-2--2--2--2-
Ab|-5--5--5--5------------4--4--4—4-------------2-4----------------
Eb|----------------------------------2--2--2--2--------------------

Chorus                                 (Play This x3)
Gb|--------------------------------------------------
Db|--------------------------------------------------
Ab|-0--0--0--0--0--0--0--0---2--2--2--2---5--5--5--5-
Eb|--------------------------------------------------

Solo 1:
Gb|----------------------------------------9-9-----------------------
Db|------------------------------------------------------------------
Ab|-0-00-0--0---2-22-2--2---4-44-4--4--7-7-----0-00-0--0---2-22-2--2-
Eb|------------------------------------------------------------------

Gb|-----------------------
Db|-----------------------
Ab|-4-44-4--4---7-7-7-5-4-
Eb|-----------------------

Repeat Verse, Chorus and Solo 1:

Solo 2:
Gb|---------------------------------------------------------------
Db|-5--5--5--5-------------------------------------0-1-2--2--2--2-
Ab|------------5--5--5--5--4--4--4--4-----------2-4---------------
Eb|-----------------------------------2--2--2--2------------------

Gb|----------------------------------------------------------
Db|------------------------5--5--5--5------------------------
Ab|-----------------------------------5--5--5--5--4--4--4--4-
Eb|-2--2--2--2--2--2--2--2-----------------------------------

Gb|--------------------------------------------------------
Db|----------------0-1-2--2--2--2---4--4--4--4--4--4--4--4-
Ab|------------2-4-----------------------------------------
Eb|-2--2--2--2---------------------------------------------

Repeat Verse:

Chorus: (Play x3)

Then Play These Single Notes Quietly Under Soft Vocals:
Gb|--------------------------------------------------
Db|--------------------------------------------------
Ab|-0------------------2---------------5-------------
Eb|--------------------------------------------------

Solo 3:
Gb|-----------------------------------------------------------
Db|-----------------------------------------------------------
Ab|----4--5--7---4--5--7---2--3--5---4--2-----2--3--5---4--2--
Eb|---5---------5---------3---------2----4---3---------2----4-

Gb|---------------------
Db|--4--5--7------------
Ab|-5--------7--7--7--7-
Eb|---------------------

Repeat Solo 3:

Solo 4:                        (Play This x3)
Gb|-----------------------------------------9-9-
Db|---------------------------------------------
Ab|-0-00-0--0---2-22-2--2---4-44-4--4---7-7-----
Eb|---------------------------------------------

Gb|-----------------------------------------------
Db|-----------------------------------------------
Ab|-0-00-0--0---2-22-2--2---4-44-4--4---7-7-7-5-4-
Eb|-----------------------------------------------

                                (Play This x3)
Gb|-----------------------------------------9-9-
Db|---------------------------------------------
Ab|-0-00-0--0---2-22-2--2---4-44-4--4---7-7-----
Eb|---------------------------------------------

Gb|-----------------------------------
Db|-----------------------------------
Ab|-0-00-0--0---2-22-2--2---4-44-4--4-
Eb|-----------------------------------

Outro:
Gb|-----------------------------------------------------------
Db|-12-12-12-12-11-9---12-12-12-12-11-9---14-14-14-14-12-11---
Ab|--------------------------------------------------------12-
Eb|-----------------------------------------------------------

You Can Straight into “Don’t Believe A Word”

            
            
Suggest correction
Creating personal tab
Creating personal tab
You can edit any tab online and save it as your Personal.

You can edit, replace or remove any tab part or add personal notes – all changes will be seen only by you.

Personal tabs can be accessed anytime from any device, even offline.
Learn more »
Give kudos to tab author, rate the tab!
1 2 3 4 5
comments
print report bad tab
guest
You may want to rate the tab now too:
select rating
Wanna post a correction for this tab? Suggest correction