Oops, an error
Loading. Please wait.

Waiting For An Alibi tab

version 2
version 2

Whole song

Interactive

1,480 views 33 this week
no commentswrite comment
1 2 3 4 5
1 last vote to show rating
add to favorites
×
Save as Personal and add changes to this tab that will be seen only by you. Learn more ›
×
You can save this tab as Personal to edit and correct it or add notes. All changes will be seen only by you. Learn more »
launch autoscroll
font size
0
reset
how to read this tab
guitar tuner
backing track
0:00
0:00
edit
Autoscroll
slow
fast
+/-
esc
set tempo
stop
-------------------------------------------------------------------------------
                             Waiting for an Alibi - Thin Lizzy
-------------------------------------------------------------------------------
Tabbed by: xShaDDowZx
E-mail: xShaDDowZx@gmail.com

Tuning: Eb Ab Db Gb Bb Eb

Intro Harmony Gtr 1

e|-12p11---------------------------16p14-------------------------------------|
B|-------14~---14-14-14h16-14-------------17~---17-17-17h19-17-16\-/12~------|
G|---------------------------16~---------------------------------------------|
D|---------------------------------------------------------------------------|
A|---------------------------------------------------------------------------|
E|---------------------------------------------------------------------------|

Intro Harmony Gtr 2

e|---------------------------------------------------------------------------|
B|-9p7-----------------------------14p12-----------------------------------|
G|----9~------9-9-9h11-9-8~---------------13~---13-13-13h14-13-11\-/8~-------|
D|---------------------------------------------------------------------------|
A|---------------------------------------------------------------------------|
E|---------------------------------------------------------------------------|

Verse

e|---------------------------------------------4--4-4-4----------------------|
B|---------------------------------------------4--4-4-4----------------------|
G|-6-------4---6-----------6-------4---6-------4--4-4-4----------------------|
D|-6-2---6-4---6-2---6-6---6-2---6-4---6-2---6-6--6-6-6----------------------|
A|-4-2---6-2---4-2---6-6---4-2---6-2---4-2---6-6--6-6-6----------------------|
E|---0---4-------0---4-4-----0---4-------0---4-4--4-4-4----------------------|

Pre-Chorus (The timing here can be a little tricky)

e|---4--4-4------4----4-x---4--4-4------------------x---4--4-4-----4-|
B|---5--5-5------4----4-x---5--5-5------------------x---5--5-5-----4-|
G|-6-6--6-6------4----4-x-6-6--6-6------------------x-6-6--6-6-----4-|
D|-6-6--6-6--6-6-6--6-6-x-6-6--6-6-4--4-4-4-4-4-4-4-x-6-6--6-6-6-6-6-|
A|-4-4--4-4--6-6-6--6-6-x-4-4--4-4-4--4-4-4-4-4-4-4-x-4-4--4-4-6-6-6-|
E|-----------4-4-4--4-4-x----------2--2-2-2-2-2-2-2-x----------4-4-4-|

e|----4--------5----5-------7-7-7-7-7-7------------------------------|
B|----4--------5----5-------7-7-7-7-7-7------------------------------|
G|----4--------6----6-------8-8-8-8-8-8------------------------------|
D|6-6-6--6-6/7-7--7-7--7/9--9-9-9-9-9-9------------------------------|
A|6-6-6--6-6/7-7--7-7--7/9--9-9-9-9-9-9------------------------------|
E|4-4-4--4-4/5-5--5-5--5/7--7-7-7-7-7-7------------------------------|

Chorus

e|----------------------------------4---------5-x-7--------------------------|
B|----------------------------------4---------5-x-7--------------------------|
G|-9------------9-----------------------------6-x-8--------------------------|
D|-9------------9----------------6-----6-6/7--7-x-9--------------------------|
A|-7------------7----------------6-----6-6/7--7-x-9--------------------------|
E|-0--0-0-0-0-0-0--0-0-0-0-0-0-4-4-----4-4/5--5-x-7--------------------------| x2

Verse 2 Lead Lick

e|---------------------------------------------------------------------------|
B|-12p9--9-------------------------------------------------------------------|
G|-----11-11b13--9---9~\-----------------------------------------------------|
D|-----------------9---------------------------------------------------------|
A|---------------------------------------------------------------------------|
E|------------------------h12\-----------------------------------------------|

Solo Part 1

e|-----------------------------------------------------------------------9---|
B|----------------------------------------------------------9h12p9-------9---|
G|-------------------9~---9-11b13--11b13br11p9--9~--9-11b13-------11b13~-----|
D|---------9~--9-9h11---11--------------------11-------------^repeat^--------|
A|---7-9/11------------------------------------------------lick-5-times------|
E|-/9------------------------------------------------------------------------|
                                                                             

e|-12--12p11p9--9------------------------------------------------------------|
B|------------12--12p10p9h10p9--9h10-----------------------------------------|
G|----------------------------11----11p9--9-11b13-11-9~----------------------|
D|--------------------------------------11-----------------------------------|
A|---------------------------------------------------------------------------|
E|---------------------------------------------------------------------------|

e|-19b21-19b21br19b21br19-17-16----------------------------------------------|
B|-----------------------------19b21-19b21~--pb21br19b21r19-17~--------------|
G|---------------------------------------------------------------------------|
D|---------------------------------------------------------------------------|
A|---------------------------------------------------------------------------|
E|---------------------------------------------------------------------------|

e|-12p9-12p9-12p9------------------------------------------------------------|
B|----------------12p9-12p9--------------------------------------------------|
G|--------------------------11p9-11p9----------------------------------------|
D|------------------------------------11p9-11p9\----9------------------------|
A|-----------------------------------------------/11-11~---------------------|
E|---------------------------------------------------------------------------|

Solo part 2 (Gtr 1)

e|-12p9-12p9-12p9------------------------------------------------------------|
B|----------------12p9-12p9------------------9-12b14~------------------------|
G|--------------------------11p9-11p9----------------------------------------|
D|------------------------------------11p9-11--------------------------------|
A|---------------------------------------------------------------------------|
E|---------------------------------------------------------------------------|

e|-12p9h12p9h12p9------------------------------------------------------------|
B|---------------12p9h12p9---------------------------------------------------|
G|------------------------11p9h11p9---------------------------11p9h11p9------|
D|---------------------------------11p9h11p9---------11p9h11p9---------------|
A|------------------------------------------11p9h11p9------------------------|
E|---------------------------------------------------------------------------|

e|----------12p9h12p9-14p12h14p12-16p14h16p14-17p16h17p16-17b19~-17b19~------|
B|-12p9h12p9-----------------------------------------------------------------|
G|---------------------------------------------------------------------------|
D|---------------------------------------------------------------------------|
A|---------------------------------------------------------------------------|
E|---------------------------------------------------------------------------|

Solo part 2 (Gtr 2)

e|-12p9-12p9-12p9----------------------------9-11b12~------------------------|
B|----------------12p9-12p9--------------------------------------------------|
G|--------------------------11p9-11p9----------------------------------------|
D|------------------------------------11p9-11--------------------------------|
A|---------------------------------------------------------------------------|
E|---------------------------------------------------------------------------|

e|-16p12h16p12h19p12-12p9h12p9-----------------------------------------------|
B|----------------------------12p9h12p9-----------------------12p9h12p9------|
G|-------------------------------------11p9h11-------11p9h11p9---------------|
D|--------------------------------------------11p9h11------------------------|
A|---------------------------------------------------------------------------|
E|---------------------------------------------------------------------------|

e|-12p9h12p9-16p12h16p12-17p16h17p16-19p17h19p17-21p19h21p19-21b23-21b23~----|
B|---------------------------------------------------------------------------|
G|---------------------------------------------------------------------------|
D|---------------------------------------------------------------------------|
A|---------------------------------------------------------------------------|
E|---------------------------------------------------------------------------|

Chorus 3 Lick 1

e|--------9-------------------------------------------------------------------|
B|------12-12-----------------------------------------------------------------|
G|-11b13-----pb13pbr11p9--11b13br11b13~---------------------------------------|
D|----------------------------------------------------------------------------|
A|----------------------------------------------------------------------------|
E|----------------------------------------------------------------------------|

Chorus 3 Lick 2

e|---------------------------------------------------------------------------|
B|------12-12------12-12-----------------------------------------------------|
G|-11b13------11b13------11b13~----------------------------------------------| Gtr 1
D|---------------------------------------------------------------------------|
A|---------------------------------------------------------------------------|
E|---------------------------------------------------------------------------|

e|------19-19------19-19-----------------------------------------------------|
B|-19b21------19b21------19b21~----------------------------------------------|
G|---------------------------------------------------------------------------| Gtr 2
D|---------------------------------------------------------------------------|
A|---------------------------------------------------------------------------|
E|---------------------------------------------------------------------------|

Guitar Solo Harmony (Gtr 1)

e|---------------------------------------------------------------------------|
B|-----9-10-9h10p9-----9-10-9h10p9----9-12-10-9-10-9-------------------------|
G|-9-11------------11-9-----------9-11--------------11-9---------------------|
D|------------------------------------------------------11-9-----------------|
A|---------------------------------------------------------------------------|
E|---------------------------------------------------------------------------|x2

e|-----------------------------------------------------12-----------------------|
B|-------12-14-12h14p12--------12-14-12h14p12--------12--14-12-14-12------------|
G|-13-14---------------14-13-14--------------14-13-14---------------14-13-11----|
D|---------------------------------------------------------------------------14-|
A|------------------------------------------------------------------------------|
E|------------------------------------------------------------------------------|

e|------12-14-12--------12-14-12--------12-14b16r14-12-14-12-----------------|
B|-12-14--------14-12-14--------14-12-14--------------------14-12------------|
G|---------------------------------------------------------------14-13-------|
D|---------------------------------------------------------------------------|
A|---------------------------------------------------------------------------|
E|---------------------------------------------------------------------------|

e|---------------------------------------------------------------------------|
B|-9p7-------------------------------14p12-----------------------------------|
G|----9~-9-9-9h11-9-8h9p8h9p8h9ect--------13~-13-13-13h14-13-11-9-8--11b13---|
D|---------------------------------------------------------------------------|
A|---------------------------------------------------------------------------|
E|---------------------------------------------------------------------------|

Guitar Solo Harmony (Gtr 2)

e|-----------------------------------------------------12-----------------------|
B|-------12-14-12h14p12--------12-14-12h14p12--------12--14-12-14-12------------|
G|-13-14---------------14-13-14--------------14-13-14---------------14-13-11----|
D|---------------------------------------------------------------------------14-|
A|------------------------------------------------------------------------------|
E|------------------------------------------------------------------------------|x2

e|------12-14-12--------12-14-12--------12-14b16r14-12-14-12-----------------|
B|-12-14--------14-12-14--------14-12-14--------------------14-12------------|
G|---------------------------------------------------------------14-13-------|
D|---------------------------------------------------------------------------|
A|---------------------------------------------------------------------------|
E|---------------------------------------------------------------------------|

e|---14-16-17-16-14--14-16-17-16-14--14-16-17b19-17-16-17-16-14--------------|
B|-17--------------17--------------17--------------------------17-14---------|
G|------------------------------------------------------------------16-------|
D|---------------------------------------------------------------------------|
A|---------------------------------------------------------------------------|
E|---------------------------------------------------------------------------|

e|-12p11-------------------------------------------16p14--------------------------------|
B|------14~--14-14-14h16-14-12h14p12h14p12h14etc--------17~-17-17-17h19-17-16-14-12-7b9-|
G|--------------------------------------------------------------------------------------|
D|--------------------------------------------------------------------------------------|
A|--------------------------------------------------------------------------------------|
E|--------------------------------------------------------------------------------------|

************************************

| /   slide up
| \   slide down
| h   hammer-on
| p   pull-off
| ~   vibrato
| +   harmonic
| x   Mute note
| b   Bend
| pb  Pre-bend
| br  Bend release
| pbr Pre-bend release
| brb Bend release bend

************************************

            
            
Suggest correction
Creating personal tab
Creating personal tab
You can edit any tab online and save it as your Personal.

You can edit, replace or remove any tab part or add personal notes – all changes will be seen only by you.

Personal tabs can be accessed anytime from any device, even offline.
Learn more »
Give kudos to tab author, rate the tab!
1 2 3 4 5
comments
print report bad tab
guest
You may want to rate the tab now too:
select rating
Wanna post a correction for this tab? Suggest correction