Oops, an error
Loading. Please wait.

Whiskey In A Jar Tab

121,709 views 129 this week
6 commentsread comments
1 2 3 4 5
accurate
x 12
add to favorites
launch autoscroll
font size
0
reset
how to read this tab
guitar tuner
Autoscroll
slow
fast
+/-
esc
set tempo
stop
Help us to improve Ultimate-Guitar.com Take our survey!
×
Author
Difficulty
intermediate
This is my first so be nice!


[Intro]

     Am (strum the intro chords quickly and very quietly)
e|-----8----8---8p7-5-7~-----7---7p5---|------------------------------------|
B|-----------------------------------8-|--8b--------------8p-5--------------|
G|-------------------------------------|------------------------7p-5--------|
D|-------------------------------------|------------------------------7--6--|
A|-------------------------------------|------------------------------------|
E|-------------------------------------|------------------------------------|

    G                                Em
e|--------------------------------|-------------------------------------|
B|--------------------------------|--5h-8p-5----------------------------|
G|------------------------4h--7---|-----------7/--9~---------4/7--6--5--|
D|--5~----------7p5h--7-----------|-------------------------------------|
A|--------------------------------|-------------------------------------|
E|--------------------------------|-------------------------------------|

                                  G  F
e|-------------------------------------|
B|-------------------------------------|
G|-------------------------------------|
D|--9--7--6--5-------------------------|
A|--------------7--6--5----------------|
E|----------------------8-7-6\5~-------|


[Interlude]

     Em
e|---------------|-------------------------------|
B|-----------5-7-|--8-------------------8~-------|
G|---7--7--7-----|-----9--11\-9p7h-8/9-----------|
D|---------------|-------------------------------|
A|---------------|-------------------------------|
E|---------------|-------------------------------|

   G                                             G F
e|------------------|--------------------------------|
B|--------------5-7-|--8-------------------8~--------|
G|------7--7--7-----|-----9--11\-9p7h-8/9------------|
D|------------------|--------------------------------|
A|------------------|--------------------------------|
E|------------------|--------------------------------|

   Em
e|------------------|-------------------------------|
B|--------------5-7-|--8-------------------8~-------|
G|------7--7--7-----|-----9--11\-9p7h-8/9-----------|
D|------------------|-------------------------------|
A|------------------|-------------------------------|
E|------------------|-------------------------------|

e|--------------------------|--------------------------|
B|--------------------------|--3-----------------------|
G|------------12\0-0--0h2h4-|-----0--2--0--2/4--0------|
D|--------------------------|--------------------------|
A|--------------------------|--------------------------|
E|--------------------------|--------------------------|


[Verse 1]

   G                    Em
As I was ....
   C                                G
.....
  G                         Em
......
       C                        G
I Said ......


[Chorus]

 D
musha ring dumma do damma da
 C
whack for my daddy 'ol
 C
whack for my daddy 'ol
           G
there's whiskey in the jar


[Interlude]

  G F  Em
e|------------------|-------------------------------|
B|--------------5-7-|--8-------------------8~-------|
G|------7--7--7-----|-----9--11\-9p7h-8/9-----------|
D|------------------|-------------------------------|
A|------------------|-------------------------------|
E|------------------|-------------------------------|

   G                                             G F
e|------------------|-------------------------------|
B|--------------5-7-|--8-------------------8~-------|
G|------7--7--7-----|-----9--11\-9p7h-8/9-----------|
D|------------------|-------------------------------|
A|------------------|-------------------------------|
E|------------------|-------------------------------|

   Em
e|------------------------|------------------------------|
B|------------------------|------------------------------|
G|--------------------12--|--14b-16--14b-16--14--12~-----|
D|------------12--14------|------------------------------|
A|------------------------|------------------------------|
E|------------------------|------------------------------|

e|--------------------------|--------------------------|
B|--------------------------|--3-----------------------|
G|------------12\0-0--0h2h4-|-----0--2--0--2/4--0------|
D|--------------------------|--------------------------|
A|--------------------------|--------------------------|
E|--------------------------|--------------------------|


[Verse 2]


[Repeat Chorus]


[Guitar Solo]

     G                                                      Em
e|-----------------------|-----------------------------|--------------7--8--|
B|---------------------7-|--8-------------------8~-----|--------------------|
G|-----------7--7--7h9---|-----9--11\-9p7h-8/9---------|--------------------|
D|-----------------------|-----------------------------|--------------------|
A|-----------------------|-----------------------------|--------------------|
E|-----------------------|-----------------------------|--------------------|

                                     C
e|--10--8--7h8p7-----7------------|---------7--8--8b-----------|
B|---------------10-----10--8--7--|--8--10-------------12--15--|
G|--------------------------------|----------------------------|
D|--------------------------------|----------------------------|
A|--------------------------------|----------------------------|
E|--------------------------------|----------------------------|

                                   G
e|--12~---12------12--14r-----|--12--------12------12~--------------|
B|------------15--------------|------15--------15--------12--15--15\|
G|----------------------------|-------------------------------------|
D|----------------------------|-------------------------------------|
A|----------------------------|-------------------------------------|
E|----------------------------|-------------------------------------|

    G
e|-------------------------------------|------------------------------------|
B|--13----12----10---------------------|--13p12p10--------------------------|
G|--------------------12----10----9----|-----------12--10\--9----------5----|
D|-------------------------------------|-------------------------12---------|
A|-------------------------------------|------------------------------------|
E|-------------------------------------|------------------------------------|

     G                     Em
  (Don't re-hit)                          (rake)
e|----------------------|-------------------x-7--8---|
B|----------------------|------------------x---------|
G|--4r---4r---4r---4r---|--4r---4r---4---------------|
D|----------------------|----------------------------|
A|----------------------|----------------------------|
E|----------------------|----------------------------|

                                     C
e|--10--8--7h8p7-----7------------|---------7--8--8b---7--10--|
B|---------------10-----10--8--7--|--8--10--------------------|
G|--------------------------------|---------------------------|
D|--------------------------------|---------------------------|
A|--------------------------------|---------------------------|
E|--------------------------------|---------------------------|

    C                              G
e|--12~---12------12--14r-----|--12--------12------12~--------------|
B|------------15--------------|------15--------15--------12--15--15\|
G|----------------------------|-------------------------------------|
D|----------------------------|-------------------------------------|
A|----------------------------|-------------------------------------|
E|----------------------------|-------------------------------------|

   G
e|-------------------------------------|
B|--13----12----10---------------------|
G|--------------------12----10----9----|
D|-------------------------------------|
A|-------------------------------------|
E|-------------------------------------|

    D
e|----------------------------------------------|
B|-------------10/13------12/15------12/17------|
G|--9-10-12-10--------12---------12---------12--|
D|----------------------------------------------|
A|----------------------------------------------|
E|----------------------------------------------|

                                       C
e|----------------------------------|--------------------------3--|
B|--12------------13---12\-10--10---|--8--10/-12\---3--3----5-----|
G|--12------------------------------|---------------0--0----------|
D|--12-----12/14--14---12\-10--10---|--9--10/-12\-----------------|
A|----------------------------------|-----------------------------|
E|----------------------------------|-----------------------------|

     C
e|--5b---5b---5--3--------|--3h5p3-------3h5p3------------|
B|------------------5--3--|--------5-3-5-------5-3--3--2--|
G|------------------------|-------------------------------|
D|------------------------|-------------------------------|
A|------------------------|-------------------------------|
E|------------------------|-------------------------------|

    C                         G
e|-------------------------|-------------------------8/12---|
B|--1----3--1/-5---3--4/6--|--5b--6h7h8--6--8/10--8---------|
G|-------------------------|--------------------------------|
D|-------------------------|--------------------------------|
A|-------------------------|--------------------------------|
E|-------------------------|--------------------------------|

    G                                 Em
e|---------8--------3----3---------|--------------------------|
B|--8----8-10--8--3-5----5---------|------13--15b---15r-------|
G|----------------------------5/---|--14----------------------|
D|---------------------------------|--------------------------|
A|---------------------------------|--------------------------|
E|---------------------------------|--------------------------|

    Em                                      G
e|----------15--17r---15----------15h17p|--15~---
B|--15-17----------------17-15h17-------|--------
G|--------------------------------------|--------
D|--------------------------------------|--------
A|--------------------------------------|--------
E|--------------------------------------|--------


[Interlude]

(another guitar enters)

   Em
e|(GTR1)--------|-------------------------------|
B|----------5-7-|--8-------------------8~-------|
G|--7--7--7-----|-----9--11\-9p7h-8/9-----------|
D|--------------|-------------------------------|
A|--------------|-------------------------------|
E|--------------|-------------------------------|
 |                                              |
e|--------------|-------------------------------|
B|--------------|--5----------------------------|
G|--4--4--4h5h7-|-----5--7----4-----5--7~-------|
D|--------------|-------------------------------|
A|--------------|-------------------------------|
E|--------------|-------------------------------|

   G                                           G  F
e|(GTR1)------------|-------------------------------|
B|--------------5-7-|--8-------------------8~-------|
G|------7--7--7-----|-----9--11\-9p7h-8/9-----------|
D|------------------|-------------------------------|
A|------------------|-------------------------------|
E|------------------|-------------------------------|
 |                  |                               |
e|------------------|-------------------------------|
B|------------------|--5----------------------------|
G|------4--4--4h5h7-|-----5--7----4-----5--7~-------|
D|------------------|-------------------------------|
A|------------------|-------------------------------|
E|------------------|-------------------------------|

   Em
e|(GTR1)------------|-------------------------------|
B|--------------5-7-|--8-------------------8~-------|
G|------7--7--7-----|-----9--11\-9p7h-8/9-----------|
D|------------------|-------------------------------|
A|------------------|-------------------------------|
E|------------------|-------------------------------|
 |                  |                               |
e|------------------|-------------------------------|
B|------------------|--5----------------------------|
G|------4--4--4h5h7-|-----5--7----4-----5--7~-------|
D|------------------|-------------------------------|
A|------------------|-------------------------------|
E|------------------|-------------------------------|

    G                                           (Don't rehit use tremolo arm)
e|(both guitars)----------|--------------------------|-------------------|
B|------------------------|--3-----------------------|-------------------|
G|----------12\0-0--0h2h4-|-----0--2--0--2/4--0------|--0----0----0----0-|
D|------------------------|--------------------------|-------------------|
A|------------------------|--------------------------|-------------------|
E|------------------------|--------------------------|-------------------|


[Verse 3]


[Repeat Chorus]


[Interlude]

  G F  Em
e|---|---------------|-------------------------------|
B|---|-----------5-7-|--8-------------------8~-------|
G|---|---7--7--7-----|-----9--11\-9p7h-8/9-----------|
D|---|---------------|-------------------------------|
A|---|---------------|-------------------------------|
E|---|---------------|-------------------------------|

   G                                             G F
e|------------------|-------------------------------|
B|--------------5-7-|--8-------------------8~-------|
G|------7--7--7-----|-----9--11\-9p7h-8/9-----------|
D|------------------|-------------------------------|
A|------------------|-------------------------------|
E|------------------|-------------------------------|

   Em
e|------------------|-------------------------------|
B|--------------5-7-|--8-------------------8~-------|
G|------7--7--7-----|-----9--11\-9p7h-8/9-----------|
D|------------------|-------------------------------|
A|------------------|-------------------------------|
E|------------------|-------------------------------|

e|--------------------------|--------------------------|
B|--------------------------|--3-----------------------|
G|------------12\0-0--0h2h4-|-----0--2--0--2/4--0------|
D|--------------------------|--------------------------|
A|--------------------------|--------------------------|
E|--------------------------|--------------------------|


[Verse 4]


[Repeat Chorus]


[Outro]

    G F  Em                                     Like a
e|----|---------------|-------------------------------|
B|----|-----------5-7-|--8-------------------8~-------|
G|----|---7--7--7-----|-----9--11\-9p7h-8/9-----------|
D|----|---------------|-------------------------------|
A|----|---------------|-------------------------------|
E|----|---------------|-------------------------------|

   G                                                 G F
 drunken' whiskey
e|------------------|---------------------------------|
B|--------------5-7-|--8-------------------8~---------|
G|------7--7--7-----|-----9--11\-9p7h-8/9-------------|
D|------------------|---------------------------------|
A|------------------|---------------------------------|
E|------------------|---------------------------------|

   Em
e|------------------|-------------------------------|
B|--------------5-7-|--8-------------------8~-------|
G|------7--7--7-----|-----9--11\-9p7h-8/9-----------|
D|------------------|-------------------------------|
A|------------------|-------------------------------|
E|------------------|-------------------------------|

                          And I loved, i loved, I loved
e|--------------------------|--------------------------|
B|--------------------------|--3-----------------------|
G|------------12\0-0--0h2h4-|-----0--2--0--2/4--0------|
D|--------------------------|--------------------------|
A|--------------------------|--------------------------|
E|--------------------------|--------------------------|

   and I love my Molly..
e|------------------------|-----------------3--------------|
B|------------------------|--3-----------------------------|
G|------------0--0--0h2h4-|-----0--2--0h2h4----0--2--0h2h4-|
D|------------------------|--------------------------------|
A|------------------------|--------------------------------|
E|------------------------|--------------------------------|

e|-----------------3--------------|-----------------3--------------|
B|--3-----------------------------|--3-----------------------------|
G|-----0--2--0h2h4----0--2--0h2h4-|-----0--2--0h2h4----0--2--0h2h4-|
D|--------------------------------|--------------------------------|
A|--------------------------------|--------------------------------|
E|--------------------------------|--------------------------------|

e|-----------------3--------------|-----------3-----------------------|
B|--3-----------------------------|--3-----------------3--------------|
G|-----0--2--0h2h4----0--2--0h2h4-|-----0h2h4----0h2h4----0--2--0h2h4-|
D|--------------------------------|-----------------------------------|
A|--------------------------------|-----------------------------------|
E|--------------------------------|-----------------------------------|

e|-----------------3--------------|-----------3-----------------------|
B|--3-----------------------------|--3-----------------3--------------|
G|-----0--2--0h2h4----0--2--0h2h4-|-----0h2h4----0h2h4----0--2--0h2h4-|
D|--------------------------------|-----------------------------------|
A|--------------------------------|-----------------------------------|
E|--------------------------------|-----------------------------------|

   Repeat and Fade
e|-----------------3--------------||
B|--3-----------------------------||
G|-----0--2--0h2h4----0--2--0h2h4-||
D|--------------------------------||
A|--------------------------------||
E|--------------------------------||

************************************

| x  Dead note
| h  Hammer-on
| p  Pull-off
| r  Release
| b  Bend
| /  Slide up
| \  Slide down
| ~  Vibrato

************************************
Suggest correction
What's this?
You can suggest a correction to this tab. Community and Mods will review your correction and vote to approve or reject it.
comments
print report bad tab
6 comments total. Showing first comments. show 1 bad comment
0 reply
StraitsSantana 239 wrote on June 25 2009, 01:11 pm

Excellent tab, cant see why it hasnt got 5 stars

+2 reply
JackWhiteIsButts 278 wrote on July 27 2009, 02:23 pm

Haven't checked out the solo but you tabbed the interlude slightly wrong and with the most awkward phrasing possible. The intro is almost perfect except you had some awkward phrasing there too. Instead of playing the 9th fret on the D string playing the 4th fret on the A string is much more natural.

Interlude

B:---------5-h7h8--5--7--5\3--5/8~---
G:--7--7------------------(7)--------

guest
You may want to rate the tab now too:
select rating
Please do not post tabs as comments. Select "correction" instead!