Oops, an error
Loading. Please wait.

Whiskey In The Jar tab

version 6
version 6

Interactive

Video

957 views 15 this week
no commentswrite comment
1 2 3 4 5
2 more votes to show rating
add to favorites
×
Save as Personal and add changes to this tab that will be seen only by you. Learn more ›
×
You can save this tab as Personal to edit and correct it or add notes. All changes will be seen only by you. Learn more »
launch autoscroll
font size
0
reset
how to read this tab
guitar tuner
backing track
0:00
0:00
edit
Autoscroll
slow
fast
+/-
esc
set tempo
stop
Author
Difficulty
WHISKEY IN THE JAR

As recorded by Thin Lizzy
(From the 1973 Album VAGABONDS OF THE WESTERN WORLD)

Arranged by Phil Lynott, Brian Downey & Eric Bell

Transcribed by Slowhand  



          Em                    G                    F                    C
      0 2 2 0 0 0          3 2 0 0 3 3          1 3 3 2 1 1          x 3 2 0 1 0

           D
      x x 0 2 3 2




Gtr I (E A D G B E) - 'Electric Guitar w/ light distortion'
Gtr II (E A D G B E) - 'Clean Electric Guitar'
Gtr III (E A D G B E) - 'Acoustic Guitar'
Gtr IV (E A D G B E) - 'Acoustic Guitar'
Gtr V (E A D G B E) - 'Electric Guitar w/ light distortion'


 Intro
  Q=62
  Am
 4/4
  Gtrs I, II
               ~             ~~~~~~~~~~~~
         |-3-|      |-3-|                    |-3-| |-3-|
  S E. E S S S Q  E S S S    Q      +Q    Q  S S S S S S
|---8--8-8p7-5-7--7-7p5---|------------------------------|
|-----------------------8-|--8b10===(8)r-----8p5---------|
|-------------------------|----------------------7p5-----|
|-------------------------|--------------------------7-6-|
|-------------------------|------------------------------|
|-------------------------|------------------------------|
|
| Gtr III
| TP                         TP
| W                         +W
|-0-----------------------|-(0)--------------------------|
|-1-----------------------|-(1)--------------------------|
|-2-----------------------|-(2)--------------------------|
|-2-----------------------|-(2)--------------------------|
|-------------------------|------------------------------|
|-------------------------|------------------------------|
|
| Gtr IV
| TP                         TP
| W                         +W
|-------------------------|------------------------------|
|-1-----------------------|-(1)--------------------------|
|-2-----------------------|-(2)--------------------------|
|-2-----------------------|-(2)--------------------------|
|-0-----------------------|-(0)--------------------------|
|-------------------------|------------------------------|


  G                  Em
  ~~                         ~~~~~~~~
                     |-3-|              |-3-|
  Q.   S S E E E E   S S S E Q  +Q    a E E E
|------------------|--------------------------|
|------------------|-5h8p5--------------------|
|--------------4h7-|-------7s9--(9)\--4s7-6-5-|
|-5------7p5h7-----|--------------------------|
|------------------|--------------------------|
|------------------|--------------------------|
|
| TP                 TP
| W                  W
|------------------|--------------------------|
|-0----------------|-0------------------------|
|-0----------------|-0------------------------|
|-0----------------|-2------------------------|
|------------------|-2------------------------|
|-3----------------|-0------------------------|
|
| TP                 TP
| W                  W
|-3----------------|-0------------------------|
|-0----------------|-0------------------------|
|-0----------------|-0------------------------|
|-0----------------|-2------------------------|
|------------------|-2------------------------|
|-3----------------|--------------------------|


                          In Time Q=126
                            G  F    Em
                           2/4     4/4
                                    Gtr I
                       ~
  |-3--| |-3-|                                    |-3-|
  E  E E E E E S S S S Q    H       H       E e E S S S
|-------------------------|-------|----------------------|
|-------------------------|-------|-------------------7h=|
|-------------------------|-------|-----------7-7-7h9----|
|-9--7-6-5----------------|-------|----------------------|
|----------7-6-5----------|-------|----------------------|
|----------------8-7-6s5--|-------|----------------------|
|
| >
| TP
| H.                   Q    q  q    E E E E E E E E
|-------------------------|-3--1--|-0-0-0-0-0-0-0-0------|
|-0-----------------------|-3--1--|-0-0-0-0-0-0-0-0------|
|-0-----------------------|-0--2--|-0-0-0-0-0-0-0-0------|
|-2-----------------------|-0--3--|-2-2-2-2-2-2-2-2------|
|-2-----------------------|-2--3--|-2-2-2-2-2-2-2-2------|
|-0-----------------------|-3--1--|-0-0-0-0-0-0-0-0------|
|
| >
| TP
| H.                   Q    q  q    E E E E E E E E
|-0-----------------------|-3--1--|-0-0-0-0-0-0-0-0------|
|-0-----------------------|-3--1--|-0-0-0-0-0-0-0-0------|
|-0-----------------------|-0--2--|-0-0-0-0-0-0-0-0------|
|-2-----------------------|-0--3--|-2-2-2-2-2-2-2-2------|
|-2-----------------------|-2--3--|-2-2-2-2-2-2-2-2------|
|-------------------------|-3--1--|-0-0-0-0-0-0-0-0------|


  Em                      G                                        F
  Gtrs III, IV
  E E  E   E   E E  Q      E  E E E E E E E       E E  E   E   Q    Q
  | |  |   |   | |  |      |  | | | | | | |       | |  |   |   |    |
  / /  /   /   / /  /      /  / / / / / / /       / /  /   /   /    /

                 ~~~~~~~~~~~~~                                   ~~~~~~
                                          |-3-|
  E E  E a E a E E +Q     +H        E e E S S S   E E  E a E a E E +Q
|-----------------------|-----------------------|------------------------|
|-8--------------8-(8)--|-(8)-----------------7h|=8--------------8-(8)---|
|---9-11s9p7-8s9--------|-------------7-7-7h9---|---9-11s9p7-8s9---------|
|-----------------------|-----------------------|------------------------|
|-----------------------|-----------------------|------------------------|
|-----------------------|-----------------------|------------------------|


  Em                                              G
   E  E E E E E E E       E E  E   E   E E  Q      E  E E E E    E E E
   |  | | | | | | |       | |  |   |   | |  |      |  | | | |    | | |
   /  / / / / / / /       / /  /   /   / /  /      /  / / / /    / / /

   ~~~                                   ~~~~~~~~~~~~~
                  |-3-|                                              |-3-|
  +H        E e E S S S   E E  E a E a E E +Q     +Q.     E E  a E E S S S
|-----------------------|-----------------------|--------------------------|
|-(8)-----------------7h|=8--------------8-(8)--|-(8)----------------------|
|-------------7-7-7h9---|---9-11s9p7-8s9--------|-------------12s0-0-0h2h4-|
|-----------------------|-----------------------|--------------------------|
|-----------------------|-----------------------|--------------------------|
|-----------------------|-----------------------|--------------------------|


                         1st - 4th Verses
                      $
  G                       G                                   Em
  E E E E   E E  Q        E E E E E E E E   E E E E E E Q     E E E E E E E  E
  | | | |   | |  |        | | | | | | | |   | | | | | | |     | | | | | | |  |
  / / / /   / /  /        / / / / / / / /   / / / / / / /     / / / / / / /  /

  E E E E a E E +Q        W                 W                 W
|---------------------||------------------|-----------------|------------------|
|-3-------------------||o-----------------|-----------------|------------------|
|---0-2-0-2s4-0-(0)---||------------------|-----------------|------------------|
|---------------------||------------------|-----------------|------------------|
|---------------------||o-----------------|-----------------|------------------|
|---------------------||------------------|-----------------|------------------|
|
| Gtr II
| H         Q    E  E     E E E E E E E E   E E E E E E E E   E E E E E E Q
|---------------------||------------------|-----------------|------------------|
|-------------------0-||o-3---3---3---5---|-3---0---0---0-3-|-5---5---5---7\---|
|---------------------||----0---0---0---0-|---0---0---0-----|---0---0---0------|
|---------------------||------------------|-----------------|------------------|
|---------------------||o-----------------|-----------------|------------------|
|---------------------||------------------|-----------------|------------------|


  Em                C                                   G
  E E E E E E Q     E E E E E E E E   E E E E E E Q     E  E E E E E E E
  | | | | | | |     | | | | | | | |   | | | | | | |     |  | | | | | | |
  / / / / / / /     / / / / / / / /   / / / / / / /     /  / / / / / / /

  Gtr II
  E E E E E E E E   E E E E E E E E   E E E E E E E E   E  E E E E E E E
|-----------------|-----------------|-----------------|------------------|
|-5---0---0---0-3-|-5---5---5---7---|-8---8-8-7---5s3-|-3/---5---8---8-5-|
|---0-0-0-0-0-----|---0---0---0---0-|-0-0-0-0-0-0-0---|----0---0-0-0-0---|
|-----------------|-----------------|-----------------|------------------|
|-----------------|-----------------|-----------------|------------------|
|-----------------|-----------------|-----------------|------------------|


  G                                                     Em
  E E E E E E E E   E E E E E E E E   E E E E E E Q     E E E E E E E E
  | | | | | | | |   | | | | | | | |   | | | | | | |     | | | | | | | |
  / / / / / / / /   / / / / / / / /   / / / / / / /     / / / / / / / /

  E E E E E E E E   E E E E Q   Q     E E E E E E E E   E E E E E E E E
|-----------------|-----------------|-----------------|-----------------|
|-3---3-3-3-3-3-0-|-3---3---3---5---|-3---0---0---0-3-|-5---5---5---7---|
|-0-0-0-0-0-0-0---|-0-0-0-0-0---0---|-0-0-0-0-0-0-0---|-0-0-0-0-0-0-0-0-|
|-----------------|-----------------|-----------------|-----------------|
|-----------------|-----------------|-----------------|-----------------|
|-----------------|-----------------|-----------------|-----------------|


  Em                C                                   G
  E E E E E E Q     E E E E E E E E   E E E E E E Q     E E E E E E E E
  | | | | | | |     | | | | | | | |   | | | | | | |     | | | | | | | |
  / / / / / / /     / / / / / / / /   / / / / / / /     / / / / / / / /

  E E E E E E E E   Q   Q   Q   E E   E E E E Q   E E   E E Q   Q   E E
|-----------------|-----------------|-----------------|------------------|
|-5---0-0-0-0-0-3-|-5---5---5---7---|-8---8-8-7S==5s3-|-3---5S==8---8-7S=|
|-0-0-0-0-0-0-0---|-0---0---0---0-0-|-0-0-0-0-0-------|-0-0-0---0---0-0--|
|-----------------|-----------------|-----------------|------------------|
|-----------------|-----------------|-----------------|------------------|
|-----------------|-----------------|-----------------|------------------|


                    Chorus
  G                  D                                  C
  E E E E E E Q      E E E E E E E E   E E E E E E Q    E E E E  E  E E E
  | | | | | | |      | | | | | | | |   | | | | | | |    | | | |  |  | | |
  / / / / / / /      / / / / / / / /   / / / / / / /    / / / /  /  / / /

  E E E E E E E E    Q   Q   Q   Q     E E Q   Q   Q    E E E E +E  Q   E
|-----------------||-----------------|----------------|-------------------|
|-5s3-3---3---3-3-||-----------------|----------------|-------5-(5)-5---5-|
|---0---0---0---0-||-7---2---2---2---|-2-2-4---4---4--|---5-5-5-(5)-5---5-|
|-----------------||-0---0---0---0---|-0-0-0---0---0--|-0-----------------|
|-----------------||-----------------|----------------|-------------------|
|-----------------||-----------------|----------------|-------------------|


  C                                                           G
  E  E E E E E E E   E E E E E E E E   E E  E E  E  E  Q      E E E E E E E E
  |  | | | | | | |   | | | | | | | |   | |  | |  |  |  |      | | | | | | | |
  /  / / / / / / /   / / / / / / / /   / /  / /  /  /  /      / / / / / / / /

  Q.     E E E E E   E E E E E E E E   E E  E E  E  E  E  E   E E E E E E E E
|------------------|-----------------|----------------------|-----------------|
|-5--------8---8---|-8---8---8---8---|-8s7-10-8s13-13-13\---|-3---0---0-------|
|-5------9---9---9-|---9---9---9---9-|----------14-14-14\---|---0---0---0-2-2-|
|------------------|-----------------|----------------------|-----------------|
|------------------|-----------------|----------------------|-----------------|
|------------------|-----------------|----------------------|-----------------|


                          Interlude
                          1.,D.S.
               To Coda
                F          Em
   E  E E E Q   Q          E E  E   E   E   E  E  E
   |  | | | |   |          | |  |   |   |   |  |  |
   /  / / / /   /          / /  /   /   /   /  /  /

  Gtr I
                                            ~~~~~~~~~
                  |-3-|
   H        E E E S S S    E E  E a E a E   E +Q
|-----------------------||--------------------------|
|---------------------7h||=8----------------8-(8)---|
|-------------7-7-7h9---||---9-11s9p7-8s9-----------|
|-----------------------||--------------------------|
|-----------------------||--------------------------|
|-----------------------||--------------------------|
|
| Gtr II
| +E  E E E E E Q          Q    Q       S S E  Q
|-----------------------||--------------------------|
|-------0-0-0-0-0-------||-0----0-------0-0-0--0----|
|-(2)-0-0-0-0-0-0-------||-0----0-------0------0----|
|-----------------------||--------------------------|
|-----------------------||--------------------------|
|-----------------------||--------------------------|


   E  E   E E   E E Q
   |  |   | |   | | |
   /  /   / /   / / /

 ~~~~~
                      |-3-|
  +H            E e E S S S
|----------------------------|
|-(8)---------------------7h=|
|-----------------7-7-7h9----|
|----------------------------|
|----------------------------|
|----------------------------|
|
|  E  S S E S S E E Q
|----------------------------|
|--0--0-0-0-0-0-0-0-0--------|
|--0------0-----0-0-0--------|
|----------------------------|
|----------------------------|
|----------------------------|


  G                                             F
  E E    E   E   E   E  E  E    E  E   E E E  E  Q
  | |    |   |   |   |  |  |    |  |   | | |  |  |
  / /    /   /   /   /  /  /    /  /   / / /  /  /

                     ~~~~~~~~~~~~~~
  E E    E a E a E   E +Q      +H          E  E  E  E
|----------------------------|------------------------|
|-8------------------8-(8)---|-(8)--------------------|
|---9---11s9p7-8s9-----------|---------------------12-|
|----------------------------|---------------12-14----|
|----------------------------|------------------------|
|----------------------------|------------------------|
|
| E S S  Q       S S E  Q       E  S S E E Q     E  E
|----------------------------|------------------------|
|-0-0-0--0-------0-0-0--0----|--0--0-0-0-0-0-----0--0-|
|-0------0-------0------0----|--0-------------------0-|
|----------------------------|------------------------|
|----------------------------|------------------------|
|----------------------------|------------------------|


  Em
   E      E   E      E  E             E   E  E
   |      |   |      |  |             |   |  |
   /      /   /      /  /             /   /  /

                                      ~~~~~~~
   E      E   E      E  S       +S    E  +Q
|-----------------------------------------------|
|-----------------------------------------------|
|-14b16==14r-14pb15-14-14pb16==(14)r-12-(12)----|
|-----------------------------------------------|
|-----------------------------------------------|
|-----------------------------------------------|
|
|  E      E   E      E  S        S    E   E  E
|-----------------------------------------------|
|--0----------0---------0--------0----0---0-----|
|--0------0----------0--0-----------------0--0--|
|-----------------------------------------------|
|-----------------------------------------------|
|-----------------------------------------------|


    E  E E E   E      E Q
    |  | | |   |      | |
    /  / / /   /      / /

    ~~~~
                          |-3-|
   +Q.     E   E    a E E S S S
|-------------------------------|
|-------------------------------|
|-(12)-------------12s0-0-0h2h4-|
|-------------------------------|
|-------------------------------|
|-------------------------------|
|
|   E  E E S S S S    E Q
|-------------------------------|
|---0--0-0-0-0-0-0----0-0-------|
|---0--0-0-----0------0-0-------|
|-------------------------------|
|-------------------------------|
|-------------------------------|


  G
  E E E E     E E  E  E    E  E E E   E E Q
  | | | |     | |  |  |    |  | | |   | | |
  / / / /     / /  /  /    /  / / /   / / /

  E E E E   a E E +Q      +W
|-----------------------|-----------------------||
|-3---------------------|----------------------o||
|---0-2-0---2s4-0-(0)---|-(0)-------------------||
|-----------------------|-----------------------||
|-----------------------|----------------------o||
|-----------------------|-----------------------||
|
| E E E S S   E E  Q       E  E E S S E E E E
|-----------------------|-----------------------||
|-----------------------|----------------------o||
|-0---0-0-0---0-0--0----|--0--0-0-0-0-0-0-0-0---||
|-0-0-0-0-------0--0----|--0--0-0-0---0-0-0-0---||
|-----------------------|----------------------o||
|-----------------------|-----------------------||


                                                       Guitar Solo
  2.
  Em                                                    G
  E E  E   E   E E    E  E    E  E E E    E  E   Q       E E E      E E  E E E
  | |  |   |   | |    |  |    |  | | |    |  |   |       | | |      | |  | | |
  / /  /   /   / /    /  /    /  / / /    /  /   /       / / /      / /  / / /

                 ~~~~~~~~~~~~~~~~~~~~~~~~~~~~
                                                             |-3-|
  E E  E a E a E E   +Q      +H          +Q      E E     E E S S S  E E  E E E
|--------------------------|---------------------7-8-||-10-8-7h8p7----7--------|
|-8--------------8---(8)---|-(8)---------(8)---------||------------10---10-8-7-|
|---9-11s9p7-8s9-----------|-------------------------||------------------------|
|--------------------------|-------------------------||------------------------|
|--------------------------|-------------------------||------------------------|
|--------------------------|-------------------------||------------------------|
|
| Q    E   E   E S S  E  E    Q    E S S  E  S S E E     E E E      E E  E E E
|--------------------------|-------------------------||------------------------|
|--------------------------|-------------------------||--3---3--------3----5---|
|-0----0---0---0-0-0--0--0-|--0----0-0-0--0--0-0-0-0-||----0--------0----0---0-|
|-0----0---0---0-0----0----|--0----0-0----0--0---0---||------------------------|
|--------------------------|-------------------------||------------------------|
|--------------------------|-------------------------||------------------------|


  G
  E  E E E E    E  Q       E E  E  E  E  E    E    E
  |  | | | |    |  |       | |  |  |  |  |    |    |
  /  / / / /    /  /       / /  /  /  /  /    /    /

                           ~~
  E  E E E E    E  E  E    Q    E  E  E  Q        +E
|------7-8-8b10---------|-12---12----12-14b15r===(14)-|
|-8-10------------12-15-|---------15------------------|
|-----------------------|-----------------------------|
|-----------------------|-----------------------------|
|-----------------------|-----------------------------|
|-----------------------|-----------------------------|
|
| E  E E E E    E  E  E    E E  E  E  E  E    Q
|-----------------------|-----------------------------|
|-3----0---0-------0--3-|--5----5-----5-------7\------|
|----0---0------0-------|----0-----0-----0------------|
|-----------------------|-----------------------------|
|-----------------------|-----------------------------|
|-----------------------|-----------------------------|


  Em                              C
   E  E E    E     E E  Q          E E    E    E  E E    E   E
   |  | |    |     | |  |          | |    |    |  | |    |   |
   /  / /    /     / /  /          / /    /    /  / /    /   /

                   ~~
        |---3---|                  |----3----|    |---3----|
   E  E E  E    E  Q    E  E    a  Q    Q    Q    Q    Q   Q
|-12------12------12---------|-----------------------------------|
|----15--------15------12-15-|-15p13---12---10-------------------|
|----------------------------|-------------------12---10---9-----|
|----------------------------|-----------------------------------|
|----------------------------|-----------------------------------|
|----------------------------|-----------------------------------|
|
|  E  E E    E     E E  E  E       E E    E    E  E E    E   E
|----------------------------|-----------------------------------|
|--5----0----------0----0--3-|-----5------5-------5------7-------|
|-----0-0----0-----0-0-------|-------0---------0----0--------0---|
|----------------------------|-----------------------------------|
|----------------------------|-----------------------------------|
|----------------------------|-----------------------------------|


   E     E    E     E  E E    Q
   |     |    |     |  | |    |
   /     /    /     /  / /    /

                       |----3----|
   S  S  S  S S  E.    Q    Q    Q
|------------------------------------|
|-13p12p10---------------------------|
|----------12---10----\9--------\5---|
|--------------------------12--------|
|------------------------------------|
|------------------------------------|
|
|  E     E    E     E  E E    E    E
|------------------------------------|
|--8----------8-----8--7------5s===3-|
|--0-----0----0-----0--0-0----0------|
|------------------------------------|
|------------------------------------|
|------------------------------------|


  G
  E     E   E      E   E      E   E      E     E      E   E      E   E  E   E E
  |     |   |      |   |      |   |      |     |      |   |      |   |  |   | |
  /     /   /      /   /      /   /      /     /      /   /      /   /  /   / /

  E    +E  +E     +E  +E     +E  +E     +E    +E     +E  +E     +E  +E  E a E E
|-------------------------------------------|-------------------------------7-8--|
|-------------------------------------------|-----------------------------x------|
|-4b5==(4)r(4)b5==(4)r(4)b5==(4)r(4)b5==(4)r|=(4)b5==(4)r(4)b5==(4)r(4)----------|
|-------------------------------------------|------------------------------------|
|-------------------------------------------|------------------------------------|
|-------------------------------------------|------------------------------------|
|
| E     E   E      E   E      E   E      E     E      E   E      E   E  E   E E
|-------------------------------------------|------------------------------------|
|-3/--------5----------8----------8------5--|--3----------3------3---3--3---3-0--|
|-------0----------0---0------0---0---------|--0------0---0------0---0--0---0----|
|-------------------------------------------|------------------------------------|
|-------------------------------------------|------------------------------------|
|-------------------------------------------|------------------------------------|


  G
   E E E      E E  E E E   E  E E E E    E Q
   | | |      | |  | | |   |  | | | |    | |
   / / /      / /  / / /   /  / / / /    / /

       |-3-|
   E E S S S  E E  E E E   E  E E E E    E E  E
|-10-8-7h8p7----7--------|------7-8-8b10---7-10-|
|------------10---10-8-7-|-8-10-----------------|
|------------------------|----------------------|
|------------------------|----------------------|
|------------------------|----------------------|
|------------------------|----------------------|
|
|  E E E      E Q    Q     E  E E E E    E E  E
|------------------------|----------------------|
|--3---3--------3----5---|-3----0---0------0--3-|
|--0-0-0------0-0----0---|-0--0-0-0-0----0-0----|
|------------------------|----------------------|
|------------------------|----------------------|
|------------------------|----------------------|


  Em
   E E  E  E  E  E    E   E     E   E    E    E     E E  Q
   | |  |  |  |  |    |   |     |   |    |    |     | |  |
   / /  /  /  /  /    /   /     /   /    /    /     / /  /

   ~~                                               ~~
                                |--3---| |---3---|
   Q    E  E  E  Q       +E     E E    E E  E    E  Q    E  E
|-12---12----12-14b15r==(14)-|-12----------12------12----------|
|---------15-----------------|--------15--------15------12-15\-|
|----------------------------|---------------------------------|
|----------------------------|---------------------------------|
|----------------------------|---------------------------------|
|----------------------------|---------------------------------|
|
|  E E  E  E  E  E    E   E     E   E    E    E     E E  E  E
|----------------------------|---------------------------------|
|--5----5-----5-------7------|--5--------0----0-----0-0--0--3--|
|--0-0--0--0--0--0----0---0--|--0---0----0----0-----0-0--0-----|
|----------------------------|---------------------------------|
|----------------------------|---------------------------------|
|----------------------------|---------------------------------|


  C
    E E    E    E  E E    E   E   E     E       E  E   E  E   Q
    | |    |    |  | |    |   |   |     |       |  |   |  |   |
    / /    /    /  / /    /   /   /     /       /  /   /  /   /

    |----3----|    |---3----|
    Q    Q    Q    Q    Q   Q     S  S  T  S.   E  E   E  E   E  E
|-------------------------------|----------------------------------|
|-\13---12---10-----------------|-------------/13----/15----/17----|
|-----------------12---10---9---|-9-10-12-10------12-----12-----12-|
|-------------------------------|----------------------------------|
|-------------------------------|----------------------------------|
|-------------------------------|----------------------------------|
|
|   Q      Q       Q      E   E   E     E       E  E   Q      E  E
|-------------------------------|----------------------------------|
|---5------5-------5------7-----|-8-------------8--8---7s=====5s=3-|
|---0------0-------0------0---0-|-0-----0-------0--0---0-----------|
|-------------------------------|----------------------------------|
|-------------------------------|----------------------------------|
|-------------------------------|----------------------------------|


  G
   E E   E     E  E E     E    E
   | |   |     |  | |     |    |
   / /   /     /  / /     /    /

                  |----3-----|
   Q    +S  S  E  Q    E  E  Q
|---------------------------------|
|-12---(12)------13---12s10-10----|
|-12---(12)-----------------------|
|-12---(12)12s14-14---12s10-10----|
|---------------------------------|
|---------------------------------|
|
|  E E   Q        Q       E    E
|---------------------------------|
|--3-----5s=======8-------8----7\-|
|--0-0---0--------0-------0----0--|
|---------------------------------|
|---------------------------------|
|---------------------------------|


  G                        D
  E    E     E E E E Q     E   E E   E E E E E   E   E   E   E   E   E Q
  |    |     | | | | |     |   | |   | | | | |   |   |   |   |   |   | |
  /    /     / / / / /     /   / /   / / / / /   /   /   /   /   /   / /

  |---3---|
  E  E    E  E E Q   E E   Q     Q     E E E E   S S S S S S S S S S E E E
|----------------------3-|-5b7---5b7---5-3-----|-3h5p3-------3h5p3---------|
|-8-10S==12\---3-3---5---|-----------------5-3-|-------5-3-5-------5-3-3-2-|
|--------------0-0-------|---------------------|---------------------------|
|-9-10S==12\-------------|---------------------|---------------------------|
|------------------------|---------------------|---------------------------|
|------------------------|---------------------|---------------------------|
|
| E    E     E E E E E E   Q     Q     Q   Q     E   E   Q       Q     Q
|------------------------|---------------------|---------------------------|
|-5s===3-----3---3---3-3-|---------------------|---------------------------|
|------0-------0---0---0-|-7-----2-----2---2---|-2---2---4-------4-----4---|
|------------------------|-0-----0-----0---0---|-0---0---0-------0-----0---|
|------------------------|---------------------|---------------------------|
|------------------------|---------------------|---------------------------|


  C
  E E E E  E  E    E    E    E         E     E E E    E    E       E
  | | | |  |  |    |    |    |         |     | | |    |    |       |
  / / / /  /  /    /    /    /         /     / / /    /    /       /

  Q   E E  E.   S +S  S E    S    +E     T T E E S  E   S +S    E.
|-------------------------|-----------------------------------/12----|
|-1---3-1-/5----3-(3)-4s6-|--5b6==(5)r---6h7h8-6-8s10---8-(8)--------|
|-------------------------|------------------------------------------|
|-------------------------|------------------------------------------|
|-------------------------|------------------------------------------|
|-------------------------|------------------------------------------|
|
| E E E E +E  Q         E   +Q.                E E    E    E       E
|-------------------------|------------------------------------------|
|-------5-(5)-5---------5-|-(5)------------------8---------8---------|
|---5-5-5-(5)-5---------5-|-(5)----------------9------9------------9-|
|-0-----------------------|------------------------------------------|
|-------------------------|------------------------------------------|
|-------------------------|------------------------------------------|


  E E    E E   E E   E   E
  | |    | |   | |   |   |
  / /    / /   / /   /   /

               |---3---|
  Q   a  E E a Q   Q   Q
|--------8-----3---3--------|
|-8---8h10-8-3h5---5--------|
|----------------------5s===|
|---------------------------|
|---------------------------|
|---------------------------|
|
| E E    E E   E E   E   E
|---------------------------|
|-8------8-----8-----8------|
|---9------9-----9-------9--|
|---------------------------|
|---------------------------|
|---------------------------|


   E  E  E    E  E     E   E    E
   |  |  |    |  |     |   |    |
   /  /  /    /  /     /   /    /

  Gtr V
   W
|----------------------------------|
|----------------------------------|
|----------------------------------|
|----------------------------------|
|----------------------------------|
|----------------------------------|
|
| Gtr I
|  E  E  Q       Q        +E   +E
|----------------------------------|
|----13-15b17---15b17r===(15)-(15)-|
|-14-------------------------------|
|----------------------------------|
|----------------------------------|
|----------------------------------|
|
| Gtr II
|  E  E  E    E  E     E   E    E
|----------------------------------|
|--8s=7-10----8s13----13--13\------|
|---------------14----14--14\------|
|----------------------------------|
|----------------------------------|
|----------------------------------|


  G
   E    E  E  E           E        E     Q             E  E E E   E  E E E
   |    |  |  |           |        |     |             |  | | |   |  | | |
   /    /  /  /           /        /     /             /  / / /   /  / / /

                                                                         |-3-|
   W                                                   H          E  E E S S S
|---------------------------------------------------|----------------------------|
|---------------------------------------------------|----------------------------|
|---------------------------------------------------|----------------4-4-4h5h7---|
|---------------------------------------------------|----------------------------|
|---------------------------------------------------|----------------------------|
|---------------------------------------------------|----------------------------|
|
|                                                      ~~~~~~~~~~~~~~
|                                                                        |-3-|
|  S  S E  E  S     +S   +S   +S   S  S  S  S  S  S    H         +E  E E S S S
|---------15-17b18r(17)-(17)-(17)-15----------15h17p|=15--------(15)---------2h==|
|-15-17------------------------------17-15h17-------|----------------3-3-3h5-----|
|---------------------------------------------------|----------------------------|
|---------------------------------------------------|----------------------------|
|---------------------------------------------------|----------------------------|
|---------------------------------------------------|----------------------------|
|
|  E    E  E  E           E        E     E     E      +E  E E E   E  E Q
|---------------------------------------------------|----------------------------|
|--3-------0--------------0-------------------------|-------0-0---0--0-0---------|
|-------0-----0--------------------0-----2-----2----|-(2)-0-0-0---0--0-0---------|
|---------------------------------------------------|----------------------------|
|---------------------------------------------------|----------------------------|
|---------------------------------------------------|----------------------------|


  Em                                              G
  E E E E E   E  Q     E  E   E E   E E E E       E E   E E E   E  Q
  | | | | |   |  |     |  |   | |   | | | |       | |   | | |   |  |
  / / / / /   /  /     /  /   / /   / / / /       / /   / / /   /  /

              ~~~~~~~~~~~~                                      ~~
                                          |-3-|
  E E E E E   Q.      +H            E E E S S S   E E   E E E   Q.
|-------------------|---------------------------|---------------------|
|-5-----------------|---------------------------|-5-------------------|
|---5-7-4-5---7-----|-(7)-------------4-4-4h5h7-|---5---7-4-5---7-----|
|-------------------|---------------------------|---------------------|
|-------------------|---------------------------|---------------------|
|-------------------|---------------------------|---------------------|
|
|             ~~~~~~~~~~~~                                      ~~
|                                         |-3-|
| E E E E E   Q.      +H            E E E S S S   E E   E E E   Q.
|-3---2-------3-----|-(3)---------------------2h|=3-----2-------3-----|
|---5---3s5---------|-----------------3-3-3h5---|---5-----3s5---------|
|-------------------|---------------------------|---------------------|
|-------------------|---------------------------|---------------------|
|-------------------|---------------------------|---------------------|
|-------------------|---------------------------|---------------------|
|
| Q   Q   S S E  Q     E  S S E S S E E Q         E S S Q   S S E  Q
|-------------------|---------------------------|---------------------|
|-0---0---0-0-0--0--|--0--0-0-0-0-0-0-0-0-------|-0-0-0-0---0-0-0--0--|
|-0---0---0------0--|--0------0-----0-0-0-------|-0-----0---0------0--|
|-------------------|---------------------------|---------------------|
|-------------------|---------------------------|---------------------|
|-------------------|---------------------------|---------------------|


                  F         Em
   E  E   E E Q   Q         E E E E E   E  E E    E  E E E   E      E Q
   |  |   | | |   |         | | | | |   |  | |    |  | | |   |      | |
   /  /   / / /   /         / / / / /   /  / /    /  / / /   /      / /

   ~~~                                  ~~~~~~~~~~~~~
                    |-3-|                                               |-3-|
  +H          E E E S S S   E E E E E   Q.       +H          E    a E E S S S
|-------------------------|--------------------|------------------------------|
|-------------------------|-5------------------|------------------------------|
|-(7)-----------4-4-4h5h7-|---5-7-4-5---7------|-(7)-------------12s0-0-0h2h4-|
|-------------------------|--------------------|------------------------------|
|-------------------------|--------------------|------------------------------|
|-------------------------|--------------------|------------------------------|
|
|  ~~~                                  ~~~~~~~~~~~~~
|                   |-3-|                                               |-3-|
| +H          E E E S S S   E E E E E   Q.       +H          E    a E E S S S
|-(3)-------------------2h|=3---2-------3------|-(3)--------------------------|
|---------------3-3-3h5---|---5---3s5----------|------------------------------|
|-------------------------|--------------------|-----------------12s0-0-0h2h4-|
|-------------------------|--------------------|------------------------------|
|-------------------------|--------------------|------------------------------|
|-------------------------|--------------------|------------------------------|
|
|  E  S S E E Q   E E       E E E E S S E  E E    E  E E S S S S    E Q
|-------------------------|--------------------|------------------------------|
|--0--0-0-0-0-0---0-0-----|-0---0---0-0-0--0---|--0--0-0-0-0-0-0----0-0-------|
|--0----------------0-----|-0-0---0-0------0-0-|--0--0-0-----0------0-0-------|
|-------------------------|--------------------|------------------------------|
|-------------------------|--------------------|------------------------------|
|-------------------------|--------------------|------------------------------|


                                                     D.S. al Coda  &
  G
  E E E E     E E  E E    E      E  E      E    E      E  Q
  | | | |     | |  | |    |      |  |      |    |      |  |
  / / / /     / /  / /    /      /  /      /    /      /  /

  Gtrs I, V
                          \0.25/    \0.25/      \0.25/    \0.25/
  E E E E   a E Q.       +Q        +Q          +Q        +Q
|----------------------|-------------------------------------------||
|-3--------------------|-------------------------------------------||
|---0-2-0---2s4-0------|-(0)-------(0)---------(0)-------(0)-------||
|----------------------|-------------------------------------------||
|----------------------|-------------------------------------------||
|----------------------|-------------------------------------------||
|
| Gtr II
| E E E S S   E E  Q      E      E  E      S S  E      E  E      E
|----------------------|-------------------------------------------||
|----------------------|-------------------------------------------||
|-0---0-0-0---0-0--0---|--0------0--0------0-0--0------0--0------0-||
|-0-0-0-0-------0--0---|--0------0--0------0----0------0--0------0-||
|----------------------|-------------------------------------------||
|----------------------|-------------------------------------------||


 Outro
  Em
  E E  E   E   E E  E  E    E  E E E E E Q
  | |  |   |   | |  |  |    |  | | | | | |
  / /  /   /   / /  /  /    /  / / / / / /

                 ~~~~~~~~~~~~~~
                                           |-3-|
  E E  E a E a E E +Q      +H        E E E S S S
|------------------------|-------------------------|
|-8--------------8-(8)---|-(8)-----------------7---|
|---9-11s9p7-8s9---------|-------------7-7-7h9-----|
|------------------------|-------------------------|
|------------------------|-------------------------|
|------------------------|-------------------------|
|
| E E  E   E   E E  E  E    E  E E E E E E E
|------------------------|-------------------------|
|------------------------|-------------------------|
|-0----0-------0----0----|--0----0---0---0---------|
|---0------0-----0-----0-|-----0---0---0---0-------|
|------------------------|-------------------------|
|------------------------|-------------------------|


  G                                                Em
  E E  E   E   E E  E  E    E  E E E E E Q         E E  E   E   E E  E  E
  | |  |   |   | |  |  |    |  | | | | | |         | |  |   |   | |  |  |
  / /  /   /   / /  /  /    /  / / / / / /         / /  /   /   / /  /  /

                 ~~~~~~~~~~~~~~                                   ~~~~~~
                                           |-3-|
  E E  E a E a E E +Q      +H        E E E S S S   E E  E a E a E E +Q
|------------------------|-----------------------|-------------------------|
|-8--------------8-(8)---|-(8)-----------------7-|-8--------------8-(8)----|
|---9-11s9p7-8s9---------|-------------7-7-7h9---|---9-11s9p7-8s9----------|
|------------------------|-----------------------|-------------------------|
|------------------------|-----------------------|-------------------------|
|------------------------|-----------------------|-------------------------|
|
| E E  E   E   E E  E  E    E  E E E E E E E       E E  E   E   E E  E  E
|------------------------|-----------------------|-------------------------|
|------------------------|-----------------------|-------------------------|
|-0----0-------0----0----|--0----0---0---0-------|-0----0-------0----0-----|
|---0------0-----0-----0-|-----0---0---0---0-----|---0------0-----0-----0--|
|------------------------|-----------------------|-------------------------|
|------------------------|-----------------------|-------------------------|


                             G
   E  E E E E    E Q         E E E E   E E  E  E    E  E E E E E Q
   |  | | | |    | |         | | | |   | |  |  |    |  | | | | | |
   /  / / / /    / /         / / / /   / /  /  /    /  / / / / / /

   ~~~
                     |-3-|                                         |-3-|
  +Q.     E E  a E E S S S   E E E E a E E +Q      +H        E E E S S S
|--------------------------|---------------------|------------------------|
|-(8)----------------------|-3-------------------|------------------------|
|-------------12s0-0-0h2h4-|---0-2-0-2s4-0-(0)---|-(0)---------0-0-0h2h4--|
|--------------------------|---------------------|------------------------|
|--------------------------|---------------------|------------------------|
|--------------------------|---------------------|------------------------|
|
|  E  E E E E    E E E       E E E E   E E  E  E    E  E E E E E E E
|--------------------------|---------------------|------------------------|
|--------------------------|---------------------|------------------------|
|--0----0---0------0-------|-0---0-----0----0----|--0----0---0---0--------|
|-----0---0------0---0-----|---0---0-----0-----0-|-----0---0---0---0------|
|--------------------------|---------------------|------------------------|
|--------------------------|---------------------|------------------------|


  Em                                                  G
  E E E E     E E E E       E E E E     E E Q         E E E E     E E E E
  | | | |     | | | |       | | | |     | | |         | | | |     | | | |
  / / / /     / / / /       / / / /     / / /         / / / /     / / / /

        |-3-|       |-3-|         |-3-|       |-3-|         |-3-|       |-3-|
  E E E S S S E E E S S S   E E E S S S E E E S S S   E E E S S S E E E S S S
|-------------3-----------|-------------3-----------|-------------3------------|
|-3-----------------------|-3-----------------------|-3------------------------|
|---0-2-0h2h4---0-2-0h2h4-|---0-2-0h2h4---0-2-0h2h4-|---0-2-0h2h4---0-2-0h2h4--|
|-------------------------|-------------------------|--------------------------|
|-------------------------|-------------------------|--------------------------|
|-------------------------|-------------------------|--------------------------|
|
| E E E E     E E E E       E E E E     E E E E       E E E E     E E E E
|-------------------------|-------------------------|--------------------------|
|-------------------------|-------------------------|--------------------------|
|-0---0-------0---0-------|-0---0-------0---0-------|-0---0-------0---0--------|
|---0---0-------0---0-----|---0---0-------0---0-----|---0---0-------0---0------|
|-------------------------|-------------------------|--------------------------|
|-------------------------|-------------------------|--------------------------|


                            Em
  E E E E     E E Q         E E E E     E E E E
  | | | |     | | |         | | | |     | | | |
  / / / /     / / /         / / / /     / / / /

        |-3-|       |-3-|         |-3-|       |-3-|
  E E E S S S E E E S S S   E E E S S S E E E S S S
|-------------3-----------|-------------3-----------|
|-3-----------------------|-3-----------------------|
|---0-2-0h2h4---0-2-0h2h4-|---0-2-0h2h4---0-2-0h2h4-|
|-------------------------|-------------------------|
|-------------------------|-------------------------|
|-------------------------|-------------------------|
|
| E E E E     E E E E       E E E E     E E E E
|-------------------------|-------------------------|
|-------------------------|-------------------------|
|-0---0-------0---0-------|-0---0-------0---0-------|
|---0---0-------0---0-----|---0---0-------0---0-----|
|-------------------------|-------------------------|
|-------------------------|-------------------------|


  E E     E E     E E Q
  | |     | |     | | |
  / /     / /     / / /

    |-3-|   |-3-|       |-3-|
  E S S S E S S S E E E S S S
|---------3--------------------|
|-3---------------3------------|
|---0h2h4---0h2h4---0-2-0h2h4--|
|------------------------------|
|------------------------------|
|------------------------------|
|
| E E     E E     E E E E
|------------------------------|
|------------------------------|
|-0-------0-------0---0--------|
|---0-------0-------0---0------|
|------------------------------|
|------------------------------|


  G                         Em
  E E E E     E E E E       E E     E E     E E Q
  | | | |     | | | |       | |     | |     | | |
  / / / /     / / / /       / /     / /     / / /

        |-3-|       |-3-|     |-3-|   |-3-|       |-3-|
  E E E S S S E E E S S S   E S S S E S S S E E E S S S
|-------------3-----------|---------3-------------------|
|-3-----------------------|-3---------------3-----------|
|---0-2-0h2h4---0-2-0h2h4-|---0h2h4---0h2h4---0-2-0h2h4-|
|-------------------------|-----------------------------|
|-------------------------|-----------------------------|
|-------------------------|-----------------------------|
|
| E E E E     E E E E       E E     E E     E E E E
|-------------------------|-----------------------------|
|-------------------------|-----------------------------|
|-0---0-------0---0-------|-0-------0-------0---0-------|
|---0---0-------0---0-----|---0-------0-------0---0-----|
|-------------------------|-----------------------------|
|-------------------------|-----------------------------|


  E E E E     E E E E
  | | | |     | | | |
  / / / /     / / / /

        |-3-|       |-3-|
  E E E S S S E E E S S S
|-------------3------------*|
|-3------------------------*|
|---0-2-0h2h4---0-2-0h2h4--*|
|--------------------------*|
|--------------------------*|
|--------------------------*|
|
| E E E E     E E E E
|--------------------------*|
|--------------------------*|
|-0---0-------0---0--------*|
|---0---0-------0---0------*|
|--------------------------*|
|--------------------------*|


Duration Legend
---------------
W - whole; H - half; Q - quarter; E - 8th; S - 16th; T - 32nd; X - 64th; a - acciaccatura
+ - note tied to previous; . - note dotted; .. - note double dotted
Uncapitalized letters represent notes that are staccato (1/2 duration)
Irregular groupings are notated above the duration line
Duration letters will always appear directly above the note/fret number it represents the
duration for.  Duration letters with no fret number below them represent rests.  Multi-
bar rests are notated in the form Wxn, where n is the number of bars to rest for.  Low
melody durations appear below the staff

Tablature Legend
----------------
 h   - hammer-on
 p   - pull-off
 b   - bend
 pb  - pre-bend
 r   - bend release (if no number after the r, then release immediately)
 /\  - slide into or out of (from/to "nowhere")
 s   - legato slide
 S   - shift slide
  - natural harmonic
[n]  - artificial harmonic
n(n) - tapped harmonic
 ~   - vibrato
 tr  - trill
 T   - tap
 TP  - trem. picking
 PM  - palm muting
\n/  - tremolo bar dip; n = amount to dip
 \n  - tremolo bar down
 n/  - tremolo bar up
/n\  - tremolo bar inverted dip
 =   - hold bend; also acts as connecting device for hammers/pulls
 <>  - volume swell (louder/softer)
 x   - on rhythm slash represents muted slash
 o   - on rhythm slash represents single note slash

Misc Legend
-----------
 |  - bar
||  - double bar
||o - repeat start
o|| - repeat end
*|  - double bar (ending)
 :  - bar (freetime)
 $  - Segno
 &  - Coda
Tempo markers -  = BPM(8/16=s8/s16), where s8 = swing 8ths, s16 = swing 16ths

            
            
Suggest correction
Creating personal tab
Creating personal tab
You can edit any tab online and save it as your Personal.

You can edit, replace or remove any tab part or add personal notes – all changes will be seen only by you.

Personal tabs can be accessed anytime from any device, even offline.
Learn more »
Give kudos to tab author, rate the tab!
1 2 3 4 5
comments
print report bad tab
guest
You may want to rate the tab now too:
select rating
Wanna post a correction for this tab? Suggest correction