Oops, an error
Loading. Please wait.

Everyday Bass Tab

4 views 1 this week
no commentswrite comment
1 2 3 4 5
3 more votes to show rating
add to favorites
launch autoscroll
font size
0
reset
guitar tuner
Autoscroll
slow
fast
+/-
esc
set tempo
stop
Help us to improve Ultimate-Guitar.com Take our survey!
×
Author
Difficulty
novice
[Intro]

G|--2-----------|--------3--5--|--2-----------|--------3--5--|
D|-----3--------|--------------|-----3--------|--------------|
A|--------3--0--|--1--4--------|--------3--0--|--1--4--------|
E|--------------|--------------|--------------|--------------|


G|--2-----------|--------3--5--|--5-5-5-5-5-5-5-5--|--5-5-5-5-5-5-5--|
D|-----3--------|--------------|--3-3-3-3-3-3-3-3--|--3-3-3-3-3-3-3--|
A|--------3--0--|--1--4--------|-------------------|-----------------|
E|--------------|--------------|-------------------|-----------------|


[Verse 1]

G|--2-2--------------|----------3-3-5-5--|--2-2--------------|----------3-3-5-5--|
D|------3-3----------|-------------------|------3-3----------|-------------------|
A|----------3-3-0-0--|--1-1-4-4----------|----------3-3-0-0--|--1-1-4-4----------|
E|-------------------|-------------------|-------------------|-------------------|


G|--2-2--------------|----------3-3-5-5--|--5-5-5-5-5-5-5-5--|--5-5-5-5-5-5-5--|
D|------3-3----------|-------------------|--3-3-3-3-3-3-3-3--|--3-3-3-3-3-3-3--|
A|----------3-3-0-0--|--1-1-4-4----------|-------------------|-----------------|
E|-------------------|-------------------|-------------------|-----------------|


[Verse 2]

G|--2-----------|--------3--5--|--2-----------|--------3--5--|
D|-----3--------|--------------|-----3--------|--------------|
A|--------3--0--|--1--4--------|--------3--0--|--1--4--------|
E|--------------|--------------|--------------|--------------|


G|--2-----------|--------3--5--|--5-5-5-5-5-5-5-5--|--5-5-5-5-5-5-5--|
D|-----3--------|--------------|--3-3-3-3-3-3-3-3--|--3-3-3-3-3-3-3--|
A|--------3--0--|--1--4--------|-------------------|-----------------|
E|--------------|--------------|-------------------|-----------------|


[Verse 3]

G|--2-----------|--------3--5--|--2-----------|--------3--5--|
D|-----3--------|--------------|-----3--------|--------------|
A|--------3--0--|--1--4--------|--------3--0--|--1--4--------|
E|--------------|--------------|--------------|--------------|


G|--2-----------|--------3--5--|--5-5-5-5-5-5-5-5--|--5-5-5-5-5-5-5--|
D|-----3--------|--------------|--3-3-3-3-3-3-3-3--|--3-3-3-3-3-3-3--|
A|--------3--0--|--1--4--------|-------------------|-----------------|
E|--------------|--------------|-------------------|-----------------|


[Instrumental]

G|--2-2--------------|----------3-3-5-5--|--2-2--------------|----------3-3-5-5--|
D|------3-3----------|-------------------|------3-3----------|-------------------|
A|----------3-3-0-0--|--1-1-4-4----------|----------3-3-0-0--|--1-1-4-4----------|
E|-------------------|-------------------|-------------------|-------------------|


G|--2-2--------------|----------3-3-5-5--|--5-5-5-5-5-5-5-5--|--5-5-5-5-5-5-5--|
D|------3-3----------|-------------------|--3-3-3-3-3-3-3-3--|--3-3-3-3-3-3-3--|
A|----------3-3-0-0--|--1-1-4-4----------|-------------------|-----------------|
E|-------------------|-------------------|-------------------|-----------------|


[Verse 4]

G|--2-----------|--------3--5--|--2-----------|--------3--5--|
D|-----3--------|--------------|-----3--------|--------------|
A|--------3--0--|--1--4--------|--------3--0--|--1--4--------|
E|--------------|--------------|--------------|--------------|


G|--2-----------|--------3--5--|--5-5-5-5-5-5-5-5--|--5-5-5-5-5-5-5-5--|
D|-----3--------|--------------|--3-3-3-3-3-3-3-3--|--3-3-3-3-3-3-3-3--|
A|--------3--0--|--1--4--------|-------------------|-------------------|
E|--------------|--------------|-------------------|-------------------|


[Verse 5]

G|--2-2--------------|----------3-3-5-5--|--2-2--------------|----------3-3-5-5--|
D|------3-3----------|-------------------|------3-3----------|-------------------|
A|----------3-3-0-0--|--1-1-4-4----------|----------3-3-0-0--|--1-1-4-4----------|
E|-------------------|-------------------|-------------------|-------------------|


G|--2-2--------------|----------3-3-5-5--|--5-5-5-5-5-5-5-5--|--5-5-5-5-5-5-5-5--|
D|------3-3----------|-------------------|--3-3-3-3-3-3-3-3--|--3-3-3-3-3-3-3-3--|
A|----------3-3-0-0--|--1-1-4-4----------|-------------------|-------------------|
E|-------------------|-------------------|-------------------|-------------------|


[Verse 6]

G|--2-----------|--------3--5--|--2-----------|--------3--5--|
D|-----3--------|--------------|-----3--------|--------------|
A|--------3--0--|--1--4--------|--------3--0--|--1--4--------|
E|--------------|--------------|--------------|--------------|


G|--2-----------|--------3--5--|--5-5-5-5-5-5-5-5--|--5-5-5-5-5-5-5-5--|
D|-----3--------|--------------|--3-3-3-3-3-3-3-3--|--3-3-3-3-3-3-3-3--|
A|--------3--0--|--1--4--------|-------------------|-------------------|
E|--------------|--------------|-------------------|-------------------|


[Verse 7]

G|--2-2--------------|----------3-3-5-5--|--2-2--------------|----------3-3-5-5--|
D|------3-3----------|-------------------|------3-3----------|-------------------|
A|----------3-3-0-0--|--1-1-4-4----------|----------3-3-0-0--|--1-1-4-4----------|
E|-------------------|-------------------|-------------------|-------------------|


G|--2-2--------------|----------3-3-5-5--|--5-5-5-5-5-5-5-5--|--5-5-5-5-5-5-5-5--|
D|------3-3----------|-------------------|--3-3-3-3-3-3-3-3--|--3-3-3-3-3-3-3-3--|
A|----------3-3-0-0--|--1-1-4-4----------|-------------------|-------------------|
E|-------------------|-------------------|-------------------|-------------------|


[Verse 8]

G|--2-----------|--------3--5--|--2-----------|--------3--5--|
D|-----3--------|--------------|-----3--------|--------------|
A|--------3--0--|--1--4--------|--------3--0--|--1--4--------|
E|--------------|--------------|--------------|--------------|


G|--2-----------|--------3--5--|--5-5-5-5-5-5-5-5--|--5-5-5-5-5-5-5-5--|
D|-----3--------|--------------|--3-3-3-3-3-3-3-3--|--3-3-3-3-3-3-3-3--|
A|--------3--0--|--1--4--------|-------------------|-------------------|
E|--------------|--------------|-------------------|-------------------|


[Outro]
                               (fade out)

G|--2-2--------------|----------3-3-5-5--|
D|------3-3----------|-------------------|
A|----------3-3-0-0--|--1-1-4-4----------|
E|-------------------|-------------------|



***************************

in regular sequence!

***************************
Suggest correction
Give kudos to tab author, rate the tab!
1 2 3 4 5
comments
print report bad tab
guest
You may want to rate the tab now too:
select rating
Wanna post a correction for this tab? Suggest correction