Oops, an error
Loading. Please wait.

Call My Name Tab

version 1
version 1

Solo

Whole song

Interactive

12,543 views 6 this week
no commentswrite comment
1 2 3 4 5
accurate
x 4
add to favorites
launch autoscroll
font size
0
reset
how to read this tab
guitar tuner
Autoscroll
slow
fast
+/-
esc
set tempo
stop
Help us to improve Ultimate-Guitar.com Take our survey!
×
Author
Difficulty
novice
My version:

E|-------12-14-11--------------9~----12~-------11----14----19~-------------|
B|----14----------12----9-10------9------12-------12----16-----------------|
G|-13----------------11------9------9--------11----------------------------|
D|-------------------------------------------------------------------------|
A|-------------------------------------------------------------------------|
E|-------------------------------------------------------------------------|


Studio/live:

E|-------12-14-11----------5---9~-4---12~-7---11----14----19~--------------|
B|----14----------12\-7-/9\--5------5-------7----12----16------------------|
G|-13----------------------------------------------------------------------|
D|-------------------------------------------------------------------------|
A|-------------------------------------------------------------------------|
E|-------------------------------------------------------------------------|

Suggest correction
comments
print report bad tab
guest
You may want to rate the tab now too:
select rating
Please do not post tabs as comments. Select "correction" instead!