Oops, an error
Loading. Please wait.

Call My Name Tab

version 2
version 2

Whole song

Interactive

1,669 views 1 this week
no commentswrite comment
1 2 3 4 5
3 more votes to show rating
add to favorites
launch autoscroll
font size
0
reset
how to read this tab
guitar tuner
Autoscroll
slow
fast
+/-
esc
set tempo
stop
Help us to improve Ultimate-Guitar.com Take our survey!
×
Author
----------------------------------------------------------------------------
                         CALL MY NAME - Third Day
----------------------------------------------------------------------------
Tabbed by: trow20

Tuning: standard

Intro
e|-------------------------------------------------------------------------|
B|-12h14-12-9-7h9-7-5-7h9-7------12h14-12-9-12p9-7-5-7h9-7-----------------|
G|-------------------------------------------------------------------------|
D|-------------------------------------------------------------------------|
A|-------------------------------------------------------------------------|
E|-------------------------------------------------------------------------|


Verse 1 (0:27-0:38)
e|------------------------------------------------------------------|
B|-----6------4------2----------------------------------------------|
G|---7------4------2------------------------------------------------|  (x2)
D|-7------4------2--------------------------------------------------|
A|------------------------------------------------------------------|
E|------------------------------------------------------------------|
     ....but do you know


Chorus (0:40-1:07)
e|-0--0--0--0--0--0--0-----------------------------------------------------|
B|-0--0--0--0--0--0--0-----------------------------------------------------|
G|-1--4--1--6--1--4--1-----------------------------------------------------|
D|-2--4--2--6--2--4--2-----------------------------------------------------|
A|-2--2--2--4--2--2--2-----------------------------------------------------|
E|-0--0--0--0--0--0--0-----------------------------------------------------|

For interlude after chorus, play intro

Verse 2 (1:25-1:30)
e|-12-11-------------------------------------------------------------------|
B|-------12-9-7-5h7-5-4---4h5----------------------------------------------|
G|-------------------------------------------------------------------------|
D|-------------------------------------------------------------------------|
A|-------------------------------------------------------------------------|
E|-------------------------------------------------------------------------|

Verse 2 Continued (1:31-1:36)
e|-12-11-12-12s14-12-11-7-7h9-----7v---------------------------------------|
B|-------------------------------------------------------------------------|
G|-------------------------------------------------------------------------|
D|-------------------------------------------------------------------------|
A|-------------------------------------------------------------------------|
E|-------------------------------------------------------------------------|

Verse 2 Continued (1:38-1:43)
e|-12-11-------------------------------------------------------------------|
B|-------12-9-7-5h7-5-4---4h5----------------------------------------------|
G|-------------------------------------------------------------------------|
D|-------------------------------------------------------------------------|
A|-------------------------------------------------------------------------|
E|-------------------------------------------------------------------------|


Chorus is the same after Verse 2


Bridge into Guitar Solo (2:16-2:41)
e|----------------------------------------------------------14s16-14-------|
B|-7-7-9-9s10-10s12-9--9h10-9-7-5------7-9-9s10-10s12-9---12----------17-12|
G|--------------------------------7----------------------------------------|
D|-------------------------------------------------------------------------|
A|-------------------------------------------------------------------------|
E|-------------------------------------------------------------------------|


Continued
e|-------------------------12-14-11--------------9v-----12v----------------|
B|-7-7-9-9s10-10s12-----14----------12----9-10------9----------------------|
G|-------------------13----------------11------9------9--------------------|
D|-------------------------------------------------------------------------|
A|-------------------------------------------------------------------------|
E|-------------------------------------------------------------------------|


Continued
e|-------11----14----19v---------------------------------------------------|
B|-12-------12----16-------------------------------------------------------|
G|----11-------------------------------------------------------------------|
D|-------------------------------------------------------------------------|
A|-------------------------------------------------------------------------|
E|-------------------------------------------------------------------------|


Play Chorus after solo

After Chorus, play intro


***************************
Key
v - vibrato
p - pull off
h - hammer-on
***************************
Suggest correction
Give kudos to tab author, rate the tab!
1 2 3 4 5
comments
print report bad tab
guest
You may want to rate the tab now too:
select rating
Wanna post a correction for this tab? Suggest correction