Oops, an error
Loading. Please wait.

Caught Up In Yourself Bass Tab

625 views 3 this week
no commentswrite comment
1 2 3 4 5
please rate
add to favorites
launch autoscroll
font size
0
reset
guitar tuner
Autoscroll
slow
fast
+/-
esc
set tempo
stop
Help us to improve Ultimate-Guitar.com Take our survey!
×
Band:   Third Day
Album:  Revelation
Song:	Caught Up In Yourself

Tuning: Standart (EADG)

This is a great song from Third Day
and also one of my favourite.

Hope you like it.

Have fun.


Legend:	

/ = slide up
\ = slide down
~ = let ring


Intro:

G|-------|
D|-------|
A|--0~---|
E|-------|


Verse 1:

G|-----------------------------------------------------|
D|---15~--15-14----------------------15~-----12~\------|
A|--------------15~--10~--10-11-12~------15~-----------|
E|-----------------------------------------------------|

G|----------------------------------------|
D|----------------------------------------|
A|--------------------33333333------------|
E|--55555555-11111111----------33333333---|

G|----------------------------------------|
D|----------------------------------------|
A|--------------------33333333-55555555---|
E|--55555555-11111111---------------------|


Pre Chorus 1:

G|-----------------------|
D|-----------------------|
A|-----3~----------------|
E|--1~----3~-3333--------|


Chorus 1:

G|----------------------------------------|
D|----------------------------------------|
A|--------------------33333333-55555555---|
E|--55555555-11111111---------------------|

G|------------------------------------------------|
D|------------------------------------------------|
A|------------------------------1010101010101010--|
E|--11111111-55555555-33333333/-------------------|


Verse 2:

G|----------------------------------------|
D|----------------------------------------|
A|--------------------33333333------------|
E|--55555555-11111111----------33333333---|

G|----------------------------------------|
D|----------------------------------------|
A|--------------------33333333-55555555---|
E|--55555555-11111111---------------------|

Pre Chorus 2:

G|-----------------------|
D|-----------------------|
A|-----3~----------------|
E|--1~----3~-3333--------|


Chorus 2:

G|----------------------------------------|
D|----------------------------------------|
A|--------------------33333333-55555555---|
E|--55555555-11111111---------------------|

G|------------------------------------------------|
D|------------------------------------------------|
A|------------------------------1010101010101010--|
E|--11111111-55555555-33333333/-------------------| 2x


Bridge 1:

G|---------------------------------------|
D|---------------------------------------|
A|-----------33333333----------55555555--|
E|--11111111----------33333333-----------|

G|------------------------------------------------|
D|------------------------------------------------|
A|-----------33333333-----------1010101010101010--|
E|--11111111----------33333333/-------------------|


Solo:

G|---------------------------------------|
D|---------------------------------------|
A|-----------33333333--------------------|
E|--11111111----------33333333-55555555--|

G|------------------------------------------------|
D|------------------------------------------------|
A|-----------33333333-----------1010101010101010--|
E|--11111111----------33333333/-------------------|


Interlude:

G|-----------------------|
D|-----------------------|
A|-----3~----------------|
E|--1~----3~-3333--------|


Chorus 3:

G|----------------------------------------|
D|----------------------------------------|
A|--------------------33333333-55555555---|
E|--55555555-11111111---------------------|

G|------------------------------------------------|
D|------------------------------------------------|
A|------------------------------1010101010101010--|
E|--11111111-55555555-33333333/-------------------| 2x



Bridge 2:

G|---------------------------------------|
D|---------------------------------------|
A|-----------33333333----------55555555--|
E|--11111111----------33333333-----------|

G|------------------------------------------------|
D|------------------------------------------------|
A|-----------33333333-----------1010101010101010--|
E|--11111111----------33333333/-------------------| 2x


Outro:

G|---------------------------------------|
D|---------------------------------------|
A|-----------33333333--------------------|
E|--11111111----------33333333-55555555--|

G|------------------------------------------------|
D|------------------------------------------------|
A|-----------33333333-----------1010101010101010--|
E|--11111111----------33333333/-------------------|

G|------------|
D|------------|
A|------------|
E|--5~--------|

Suggest correction new What's this?
You can suggest a correction to this tab. Community and Mods will review your correction and vote to approve or reject it.
comments
We did not receive enough feedback on this tab! Please rate:
print report bad tab
1 2 3 4 5
guest
You may want to rate the tab now too:
select rating
Please do not post tabs as comments. Select "correction" instead!