Oops, an error
Loading. Please wait.

Consuming Fire Bass Tab

version 1
version 1

Whole song

Interactive

2,714 views 1 this week
1 commentread comment
1 2 3 4 5
worth learning
x 5
add to favorites
launch autoscroll
font size
0
reset
guitar tuner
Autoscroll
slow
fast
+/-
esc
set tempo
stop
Help us to improve Ultimate-Guitar.com Take our survey!
×
"Consuming Fire"
 Third Day
 Album: Third Day
 Lyrics: Mac Powell
 Music: Third Day
 (c) 1995 Gray Dot Records
 Tabbed By: Johnny Lloyd (StarFlyr99@aol.com)
 Intro, Chorus, & Ending:
 G-|-----------------------|  
 D-|-----------------------| 2x for Intro & Chorus
 A-|-----3-----5-----3-----| 4x for ending
 E-|--0-----3-----0-----5--|  (2x during solo, 2x regular) 
 Verse:       6x
 G-|-----------|
 D-|-----------|
 A-|-----------|
 E-|--0--3--5--|        
 Prechorus:      1x
 G-|--------------|
 D-|--------------|
 A-|-----------2--|
 E-|--5--3--2-----|
 
 Bridge:              2x                      1x
 G-|-------------------|-----------------------|
 D-|*-----------------*|-----------------------|
 A-|*--2---5---0---7--*|---2---5---0---0-------|
 E-|-------------------|-------------------0---|
 Outro:                                                             2x
 G-|-----------------------------------------------------------------|
 D-|-----------------------------------------------------------------|
 A-|---------3---------------5---------------3-----------------------|
 E-|-0-0-0-0---0-0-0-3-0-0-0---0-0-0-0-0-0-0---0-0-0-5-0-0-0-0-0-0-0-|
  
  You shouldn't have trouble figuring
  out which part goes where. 

           
Suggest correction
comments
print report bad tab
1 comment total.
0 reply
Hunt356 82 wrote on July 23 2014, 02:53 pm

Good job!

guest
You may want to rate the tab now too:
select rating
Wanna post a correction for this tab? Suggest correction