Oops, an error
Loading. Please wait.

Consuming Fire Tab

version 1
version 1

Whole song

Interactive

18,630 views 12 this week
1 commentread comment
1 2 3 4 5
accurate
x 5
add to favorites
launch autoscroll
font size
0
reset
how to read this tab
guitar tuner
Tab Pro tools
  • play this tab
  • loop segment
  • change instrument
  • show fretboard
  • metronome
×
Best way to learn
"Consuming Fire"
Autoscroll
slow
fast
+/-
esc
set tempo
stop
#----------------------------------PLEASE NOTE--------------------------------#
#This file is the author's own work and represents their interpretation of the#
#song. You may only use this file for private study, scholarship, or research.#
#-----------------------------------------------------------------------------#

Date: Sun, 10 May 98 22:13:50 PDT
From: Marston 
Subject: t/third_day/consuming_fire.tab

Consuming Fire
By: Third Day
From: Myron Marston and Jeremy Dillow
email: marston@foxcomm.net

Daniel McNeal (dmcneal@engr.latech.edu) deserves credit for all the
chords.  We only changed the B to a B7 (it sounds slightly better)
and added the guitar solo.  If you know a better way to play anything,
or need help on the solo, please let us know.

E-C-G-D-E-C-A x2
E-G-A x2

-Verse-
E        G        A
Set this place on fire
E         G       A
Send your Spirit, Savior
E      G        A
Rescue from the mire
E         G       A
Show your servant favor
A                          G
Yesterday was the day that I was alone
    D                      B7
Now I'm in the presence of Almighty God

-Chorus-
        E    C       G         D
Yes our God, He is a consuming fire
        E      C         A
And the flames burn down deep in my soul
        E   C       G         D
Yes our God He is a consuming fire
   E         C           A
He reaches inside and He melts down this cold heart of stone.

E-G-A X2

(Verse)

(Chorus)

Bm-D-A-Em

Bm       D             A                      Em
Did you realize that inside of you there is a flame
Bm      D                  A
Did you ever try to let it burn
                    E
Let it burn, let it burn?

            E    C       G         D
And yes our God, He is a consuming fire
        E      C         A
And the flames burn down deep in my soul

-Drum Fill-
-Guitar Solo-(E-C-G-D-E-C-A)


------------------------------------------------------------------------
-12--------------12-------------12-15-15b17-15-12h13-15p13p12--14b15r14v
-14b16-(play 3x)-14b16r14p12h14v----------------------------12----------
------------------------------------------------------------------------
------------------------------------------------------------------------
------------------------------------------------------------------------

                        Play this fast!
-----------------------|----------------|------------------------------
-----------------------|----------------|12----10---17----17----14-----
-12h13---14p12-11h12p11|----------------|15b16------19b21-19b21-17b18--
-------14--------------|12p10--14p12----|------------------------------
-----------------------|----12-----14p12|------------------------------
-----------------------|----------------|------------------------------

                         Key:
--15------------------       b=bend
----17-15---17b19r17v-       r=return
---------16-----------       p=pull off
----------------------       h=hammer on
----------------------       v=vibrato
----------------------

Copyright 1995 Class Reunion Music/Little Man Big Man Music/gray dot
songs, a division of gray dot, inc. (ASCAP)
comments
print report bad tab
1 comment total.
0 reply
sshsguitarist21 wrote on August 31 2008, 06:11 pm

should be labeled a chord chart and put the solo separate...where's the rest of the lead stuff?

I want to post or [tab]
guest
You may want to rate the tab now too:
select rating
Please do not post tabs as comments. Select "correction" instead!