Oops, an error
Loading. Please wait.

Consuming Fire Bass Tab

version 2
version 2

Whole song

Interactive

911 views 1 this week
no commentswrite comment
1 2 3 4 5
x 3
add to favorites
launch autoscroll
font size
0
reset
guitar tuner
Autoscroll
slow
fast
+/-
esc
set tempo
stop
Help us to improve Ultimate-Guitar.com Take our survey!
×
Difficulty
novice

Intro & Chorus:
G-|------------------------------------------------|
D-|---------------------7-----------------------5--| 
A-|-------3-333-----5-55------3-333----------5-7-5-|
E-|--0-000-----3-333-----0-000-----5-555--5-7------|   
Verse:
G-|------------|
D-|------------|   
A-|------------|
E-|--0--3--5-.-|   6X
(. = rest)
Prechorus:
G-|------------------------------------------------4-2------|
D-|---------------------------------------------------4-2---|
A-|-----------------------------------------4-----------4-2-|
E-|--5-555—-5-555—-3-333—-3-333—-2-222—-2-22--2-222---------|       

Chorus 
                                    
G-|-------------------------------------------------------------|
D-|--------------------------------------------------7-5--------|
A-|-----------------------------------------------------7-5-----|
E-|-0-000--3-333—-3/5.3—-3/5.3--0-000--3-333--3/5.3---------7-5-|
(/ = slide)  (. = rest)  
G-|--------------------------------------------------------|
D-|--------------------------------------------------------|
A-|--------------------------------------------------------|
E-|-0-000--3-333—-3/5.3—-3/5.3--0-000--3-333--3/5.3—-3/5.3-|

G-|--------------------------------9----12----14-4-2-------|
D-|-----------------------5-------9---12----14------4-2----|
A-|--------------------5-7---5-5-7--10----12-----------4-2-|
E-|-0-000--3-333--5-5-7------------------------------------|

G-|-------------------------------------------4-2---------|
D-|-----------------------------------------------4-2-----|
A-|------------------------------------4--------------4-2-|
E-|--5-555-5-555-3-333-3-333-2-222-2-22--2-222------------|

Chorus 2x

G-|----------------------------------------------------------|
D-|---------------------------9-7-9-7-----------------9-7----|
A-|-2---2---5---.---0---.---7----------2--.2-5.-0-.-7----9-7-|
E-|----------------------------------------------------------|

G-|---------------------------------------------------------------|
D-|-----------------14--------------------------------------------|
A-|--2-2-5-.-0-.-12-12-7--.-7-.-----------------------------------|
E-|--------------------0--.-0-.-0-0-3-3-3-33-3-310-10-10/12-0-0-3-|
(/ = slide)  (. = rest) 
G-|-----------------------|
D-|-----------------------|
A-|--3-3-3----------------|
E-|-----5-5-5-555-555-.-.-|

Chorus: 4x

G-|---------------------------------------------------------|
D-|---------------------------------------------------------|
A-|-7------3--------------5-7-------3-----------------------|
E-|7-000-000-00-000-300-000-000-000—-00-000-500-000-000-000-|

G-|--------------------------------------------------------|
D-|--------------------------------------------------------|
A-|-7---3-------------------5---7---3----------------------|
E-|-000-000-000-000-300-000--00-000—00-000—500-000-000-000-|


I hope that this will help further the kingdom of Jeusu our Lord 
Mike W. thechristianjams@yahoo.com
Suggest correction
Give kudos to tab author, rate the tab!
1 2 3 4 5
comments
print report bad tab
guest
You may want to rate the tab now too:
select rating
Wanna post a correction for this tab? Suggest correction