Oops, an error
Loading. Please wait.

Cry Out To Jesus Bass Tab

4,043 views 9 this week
2 commentsread comments
1 2 3 4 5
excellent!
x 3
add to favorites
launch autoscroll
font size
0
reset
guitar tuner
Tab Pro tools
  • play this tab
  • loop segment
  • change instrument
  • show fretboard
  • metronome
×
Best way to learn
"Cry Out To Jesus"
Autoscroll
slow
fast
+/-
esc
set tempo
stop
Contributor
Difficulty
novice
-------------------------------------------------------------------------------
			     Cry Out To Jesus - Third Day
-------------------------------------------------------------------------------

Tabbed By : Nighthawk551
E-mail: falcon_nighthawk@yahoo.com

If you have any questions or comments, please feel free to e-mail me.

Tuning: Standard (EADG)

Order: V1 C1 V2 C2 B V3(Rest) C3 C4 Outro

Verse 1
G|---------------------------------------------------------------------------|
D|---------------------------------------------------------------------------|
A|---------------------------------------------------------------------------|
E|-1~------------------------------------------------------------------------|

Chorus 1
G|---------------------------------------------------------------------------|
D|---------------------------------------------------------------------------|
A|-----3~--0~----------3~--0~----------3~-------3--0-------------------------|
E|-1~----------3~--1~----------3~--1~-----0-1-3------3-----------------------|

Verse 2
G|---------------------------------------------------------------------------|
D|---------------------------------------------------------------3--3--33-3-3|
A|--3--3--3-3-3------------0--0--0-0-0--------------3--3--33-3-3-------------|
E|-------------1--1--1-1-1-------------3--3--3-3-3---------------------------|

G|---------------------------------------------------------------------------|
D|---------------------------------------------------------------------------|
A|--0--0--00-0-0-------------------------------------------------------------|
E|---------------3--3--33-3-3------------------------------------------------|

Chorus 2
G|---------------------------------------------------------------------------|
D|---------------------------------------------------------------------------|
A|--------3-3~--0-0~------------------3-3~--0-0~-----------------------------|
E|--1-1~--------------3-3-3~--1-1-1~--------------3~--1~-1-1-1-1-1-1---------|

Bridge
G|--2-2-2-2-2-2--0-0-0-0-0-0--5-5-5-5-5-5--10-10-10-9-7-5-5--2-2-2-2-2-2-----|
D|---------------------------------------------------------------------------|
A|---------------------------------------------------------------------------|
E|---------------------------------------------------------------------------|

G|--0-0-0-0-0-0--------------10-10-10~---------------------------------------|
D|---------------3-3-3-3~----------------------------------------------------|
A|---------------------------------------------------------------------------|
E|---------------------------------------------------------------------------|

Verse 3 (Rest)

Chorus 3
G|---------------------------------------------------------------------------|
D|---------------------------------------------------------------------------|
A|--------3-3~--0-0~------------------3-3~--0-0~-----------------------------|
E|--1-1~--------------3-3-3~--1-1-1~-------------3-3-3~----------------------|

Chorus 4
G|--------------------------10-10~-------------------------------------------|
D|---------------------------------------------------------------------------|
A|--------3-3~--0-0~----------------3-3-3~--0-0~-----------------------------|
E|--1-1~--------------3-3~-----------------------3-3--3-3-3-3-3--1-1-1-1-1---|

Outro
G|------5-7-9-10-10-9-7-5--5-7-9-10-10-9-7-2-2222-4-4444--10-10-10-10-10-10--|
D|---------------------------------------------------------------------------|
A|----0----------------------------------------------------------------------|
E|--1------------------------------------------------------------------------|

G|--10-10-10-10-2-2222-0-0000----------------2~--0~--------------------------|
D|----------------------------3-3333-3-3333----------3~----------------------|
A|---------------------------------------------------------------------------|
E|---------------------------------------------------------------------------|

| /  slide up
| \  slide down
| h  hammer-on
| p  pull-off
| ~  vibrato
| +  harmonic
| x  Mute note
===============================================================================
comments
We did not receive enough feedback on this tab! Please rate:
print report bad tab
1 2 3 4 5
2 comments total.
0 reply
follower4582 wrote on February 3 2009, 02:58 pm

hmm... seems pretty much right to me... id have to say good job

0 reply
frettlessIBANEZ wrote on January 29 2012, 06:26 pm

great job! thanks a milloin God bless

I want to post or [tab]
guest
You may want to rate the tab now too:
select rating
Please do not post tabs as comments. Select "correction" instead!