Oops, an error
Loading. Please wait.

God Of Wonders solo tab

version 3
version 3

Whole song

Interactive

5,528 views 15 this week
no commentswrite comment
1 2 3 4 5
2 more votes to show rating
add to favorites
×
Save as Personal and add changes to this tab that will be seen only by you. Learn more ›
×
You can save this tab as Personal to edit and correct it or add notes. All changes will be seen only by you. Learn more »
launch autoscroll
font size
0
reset
how to read this tab
guitar tuner
edit
Autoscroll
slow
fast
+/-
esc
set tempo
stop
Author
Difficulty
This is the solo for "God of Wonders" by Third Day. You play the solo during the chorus. 
around 2/3 through the song. But it goes like this!

e(-3-3-3-3-2-------------------------------------------|
B(-----------3--5--5-5-5-5-3---------------------------|
G(---------------------------2--4--5-5-5-5-4--0--------|
D(-----------------------------------------------7-----|
A(-------------------------------------------------7-5-|
E(-----------------------------------------------------|

That's how I see everyone post their tabs, but here is my other version.

e(-3,3,3,3-2------------------------------------------------------------------|
B(-----------3slide5--5,5,5,5-3-----------------------------------------------|
G(--------------------------------2 slide4--5,5,5,5-4--0----------------------|
D(--------------------------------------------------------5 slide7------------|
A(-----------------------------------------------------------------5 slide7-5-|
E(----------------------------------------------------------------------------|

Let me know if that helps.

**ROCK_ON**

            
            
Suggest correction
Creating personal tab
Creating personal tab
You can edit any tab online and save it as your Personal.

You can edit, replace or remove any tab part or add personal notes – all changes will be seen only by you.

Personal tabs can be accessed anytime from any device, even offline.
Learn more »
Give kudos to tab author, rate the tab!
1 2 3 4 5
comments
print report bad tab
guest
You may want to rate the tab now too:
select rating
Wanna post a correction for this tab? Suggest correction