Oops, an error
Loading. Please wait.

Gomers Theme tab

version 1
version 1

Whole song

Interactive

551 views 1 this week
no commentswrite comment
1 2 3 4 5
x 4
add to favorites
×
Save as Personal and add changes to this tab that will be seen only by you. Learn more ›
×
You can save this tab as Personal to edit and correct it or add notes. All changes will be seen only by you. Learn more »
launch autoscroll
font size
0
reset
how to read this tab
guitar tuner
edit
Autoscroll
slow
fast
+/-
esc
set tempo
stop
Author
================================================================
                     Gomer's Theme - Third Day
================================================================
                   As recorded by Third Day
             (From the 1995 Album Conspiracy No. 5)

Words and Music by Third Day

Tuning: (E A D G B e) - 'Standard Tuning'


Legend:
x = Mute
h = Hammer-On
p = Pull-Off
/ = Slide



Intro (Let Ring, Clean):

e--0---0-0----0----0--0-0-----0------0---0-0------0-----0---0-0-----0----|
B--0---0-0----0----0--0-0---0-0------0---0-0----0-0-----2---2-2---2-2-2--|
G--1---1-1----1-1--1--1-1---1-1-1----1---1-1----1-1--1--1---1-1---1-1-1--|
D--2---2-2----2-2--2--2-2---2-2-2----0---0-0----0-0--0--2---2-2---2-2-2--|
A--2---2-2----2-2--2--2-2---2-2-2----2---2-2----2-2--2--0---0-0---0-0-0--|
E--0---0-0----0-0--0--0-0---0-0-0----0---0-0----0-0--0-------------------|



Post-Intro:
Guitar 1:

e---------------------------------------------|
B-----------------------0---------------------|
G-----------------------1---------------------|
D--2--------------------2---------------------|
A--2--------------------2---------------------|
E--0--------------------0---------------------|

Guitar 2:

e--------------7-----------------------------|
B------------------7-------------------------|
G--------------------------------------------|
D--------------------------------------------|
A--------------------------------------------|
E--------------------------------------------|



Verse 1:

e---------------------------------------------|
B-----------------------------------------2---|
G-----------------------1--------------1------|
D--2--------------------0--------2--2---------|
A--2--------------------2--------0------------|
E--0--------------------0---------------------|




Pre-Chorus 1:
Guitar 1:
e-------------------------------------------------------------------|
B-------------------------------------------------------------------|
G-------------------------------------------------------------------|
D--6-6-6-6-6-6-6-6--7-7-7-7-7-7-7-7-2-----x---2---2-----------------|
A--6-6-6-6-6-6-6-6--7-7-7-7-7-7-7-7-2-----x---2---2-----------------|
E--4-4-4-4-4-4-4-4--5-5-5-5-5-5-5-5-0-----x---0---0-----------------|


Guitar 2:

e--------------------------------------------------------7----------|
B-------------------------------------------------7--7-------7------|
G----------------------------------------------9----------------9---|
D-------------------------------------------------------------------|
A-------------------------------------------------------------------|
E-------------------------------------------------------------------|


Guitar 1:
e---------------------------------------------------------------------|
B---------------------------------------------------------------------|
G---------------------------------------------------------------------|
D--6-6-6-6-6-6-6-6--7-7-7-7-7-7-7-7--9-9-9-9-9-9-9-9-9-9-9-9-9-9-9-9--|
A--6-6-6-6-6-6-6-6--7-7-7-7-7-7-7-7--9-9-9-9-9-9-9-9-9-9-9-9-9-9-9-9--|
E--4-4-4-4-4-4-4-4--5-5-5-5-5-5-5-5--7-7-7-7-7-7-7-7-7-7-7-7-7-7-7-7--|

Guitar 2:
e---------------------------------------------------------------------|
B------------------------------------5-4---5-4---5-4---5-4---5-4------|
G----------------------------------------4-----4-----4-----4-----4----|
D---------------------------------------------------------------------|
A---------------------------------------------------------------------|
E------------------------------------------------------------------0--|



Chorus:

e-----------------------------------------------------------------------|
B-----------------------------------------------------------------------|
G-------------------4-4-4-4-4-4-4-5--6-6-6-6-6-6-4-4-2-2-2-2-2-2--------|
D--2-2-2-2-2-2-2-0--4-4-4-4-4-4-4-5--6-6-6-6-6-6-4-4-2-2-2-2-2-2--------|
A--2-2-2-2-2-2-2-0--2-2-2-2-2-2-2-3--4-4-4-4-4-4-2-2-0-0-0-0-0-0--------|
E--0-0-0-0-0-0-0-0-----------------------------------------------0-3~---|


e----------------------------------------------------------------------|
B----------------------------------------------------------------------|
G-------------------4-4-4-4-4-4-4-0--6-6-6-5-5-5-5-5-2-2-2-2-2-2-2-----|
D--2-2-2-2-2-2-2-0--4-4-4-4-4-4-4-0--6-6-6-6-6-6-6-6-2-2-2-2-2-2-2-----|
A--2-2-2-2-2-2-2-0--2-2-2-2-2-2-2-0--6-6-6-6-6-6-6-6-0-0-0-0-0-0-0-----|
E--0-0-0-0-0-0-0-0-------------------4-4-4-4-4-4-4-4----------------0--|



Verse 2:

e-----------------------------------------------------------------------|
B-----------------------------------------------------2----xxxx--2--2---|
G------------------------------------1----xxxx--1--1--x----xxxx--x--x---|
D--2----xxxx--2--x--2----xxxx--2--x--0----xxxx--0--0--2----xxxx--2--2---|
A--2----xxxx--2--x--2----xxxx--2--x--2----xxxx--2--2--0----xxxx--0--0---|
E--0----xxxx--0--x--0----xxxx--0--x--0----xxxx--0--0--------------------|



Bridge (Let Ring):

e---------------------------5-----------------------------------4---------|
B-----------4h5-------------5-------------------2---------------4---------|
G----------------6----------6----------------------2---------------5------|
D-------6----------------------7---------------------4-----------------6--|
A--4------------------------------7---------------------------------------|
E---------------------5--------------5-----2-----------2---4--------------|


e---------------------------5--------------------------------|
B-----------4h5-------------5-------------------2------------|
G----------------6----------6----------------------2---------|
D-------6----------------------7---------------------4-------|
A--4------------------------------7--------------------------|
E---------------------5--------------5-----2-----------2-----|


e--------------------------------------------------------------------|
B-----------------5p4-------------5p4--------------4-4-4-4-4-4-4-4---|
G--4-4-4-4-4-4-4------4---4-4-4-4-----4---4-4-4-4--4-4-4-4-4-4-4-4---|
D--4-4-4-4-4-4-4--------4-4-4-4-4-------4-4-4-4-4--4-4-4-4-4-4-4-4---|
A--2-2-2-2-2-2-2----------2-2-2-2---------2-2-2-2--2-2-2-2-2-2-2-2---|
E--------------------------------------------------------------------|



Interlude:
Guitar 1:

e-------------------------------------------------------------------------|
B-------------------------------------------------------2-2-2-2-2-2-2-2---|
G--------------------------------------1-1-1-1-1-1-1-1--1-1-x-x-x-x-x-x---|
D--------------------------------------0-0-0-0-0-0-0-0--2-2-2-2-2-2-2-2---|
A--7~----------------------------------2-2-2-2-2-2-2-2--0-0-0-0-0-0-0-0---|
E--------------------------------------0-0-0-0-0-0-0-0--------------------|


Guitar 2 (Clean):

e-------------------------------------------------------------------------|
B-------------------------------------------------------------------------|
G--1-----1-----1-1-1-----1-----1-1----------------------------------------|
D--2---2-2-----2-2-2---2-2---2-2-2----------------------------------------|
A--2---2-2-----2-2-2---2-2---2-2-2----------------------------------------|
E--0---0-0-----0-0-0---0-0---0-0-0----------------------------------------|



Pre-Chorus 2:

Guitar 1:
e-----------------------------------|
B-----------------------------------|
G-----------------------------------|
D--9-9-9-9-9-9-9-9-9-9-9-9-9-9-9-9--|
A--9-9-9-9-9-9-9-9-9-9-9-9-9-9-9-9--|
E--7-7-7-7-7-7-7-7-7-7-7-7-7-7-7-7--|

Guitar 2:
e-----------------------------------|
B--5-4---5-4---5-4---5-4---5-4------|
G------4-----4-----4-----4-----4----|
D-----------------------------------|
A-----------------------------------|
E--------------------------------0--|



Solo:
Guitar 1:

e-----------------------------------------------------------------------|
B-----------------------------------------------------------------------|
G-------------------4-4-4-4-4-4-4-5--6-6-6-6-6-6-4-4-2-2-2-2-2-2--------|
D--2-2-2-2-2-2-2-0--4-4-4-4-4-4-4-5--6-6-6-6-6-6-4-4-2-2-2-2-2-2--------|
A--2-2-2-2-2-2-2-0--2-2-2-2-2-2-2-3--4-4-4-4-4-4-2-2-0-0-0-0-0-0--------|
E--0-0-0-0-0-0-0-0-----------------------------------------------0-3~---|


e----------------------------------------------------------------------|
B----------------------------------------------------------------------|
G-------------------4-4-4-4-4-4-4-0--6-6-6-5-5-5-5-5-2-2-2-2-2-2-2-----|
D--2-2-2-2-2-2-2-0--4-4-4-4-4-4-4-0--6-6-6-6-6-6-6-6-2-2-2-2-2-2-2-----|
A--2-2-2-2-2-2-2-0--2-2-2-2-2-2-2-0--6-6-6-6-6-6-6-6-0-0-0-0-0-0-0-----|
E--0-0-0-0-0-0-0-0-------------------4-4-4-4-4-4-4-4----------------0--|


e------------------------------------|
B------------------------------------|
G--6-6-6-5-5-5-5-5-2-2-2-2-2-2-2-----|
D--6-6-6-6-6-6-6-6-2-2-2-2-2-2-2--2--|
A--6-6-6-6-6-6-6-6-0-0-0-0-0-0-0--2--|
E--4-4-4-4-4-4-4-4----------------0--|


Guitar 2:

e----------------------------------------------------------------------------------------|
B---------9--10~---9-----------12--10~---9---------------9~----10~----9~-----------9br~\-|
G------x--------------11~---------------------11-----11---------------------11~----------|
D----------------------------------------------------------------------------------------|
A----------------------------------------------------------------------------------------|
E--0-------------------------------------------------------------------------------------|


e-----------------------------12~~\-----14b---14--12~-----17p16----------19b------|
B--9--10----12~\-----9--10---------------------------------------17---------------|
G---------------------------------------------------------------------x-----------|
D---------------------------------------------------------------------------------|
A---------------------------------------------------------------------------------|
E---------------------------------------------------------------------------------|



e--19~-----17p16---------------------------------------|
B-----------------17\--19b---19----17----19----19b-----|
G------------------------------------------------------|
D------------------------------------------------------|
A------------------------------------------------------|
E------------------------------------------------------|



Order:

Intro..........2x
Post-Intro.....1x
Verse 1........2x
Pre-Chorus 1...1x
Chorus.........1x
Verse 2........2x
Pre-Chorus 1...1x
Chorus.........1x
Bridge.........1x
Interlude......2x
Pre-Chorus 2...1x
Chorus.........2x
Solo...........1x

            
            
Suggest correction
Creating personal tab
Creating personal tab
You can edit any tab online and save it as your Personal.

You can edit, replace or remove any tab part or add personal notes – all changes will be seen only by you.

Personal tabs can be accessed anytime from any device, even offline.
Learn more »
comments
print report bad tab
guest
You may want to rate the tab now too:
select rating
Wanna post a correction for this tab? Suggest correction