Oops, an error
Loading. Please wait.

Ive Always Loved You Bass Tab

version 1
version 1

Whole song

Interactive

3,626 views 3 this week
no commentswrite comment
1 2 3 4 5
1 last vote to show rating
add to favorites
launch autoscroll
font size
0
reset
guitar tuner
Autoscroll
slow
fast
+/-
esc
set tempo
stop
Help us to improve Ultimate-Guitar.com Take our survey!
×
Artist: Third Day
Album: Time
Song: I've always loved you
Tabbed by Kelly....walkin_with_jesus@juno.com

Well this is the first tab I have ever entered in, I hope you like it! 
It is pretty easy once you get the hang of it.  There are variations in the amount of time you play the 7th fret on the E string, so it is hard to group, it is also hard to hear with the drums you have to listen hard.  I think I got them all if not pretty close, but if you have any questions feel free to e-mail me.

X3 but on the last two times, don't slide just start from the 9th fret.
"I don't know how to explain it...."
G--3\9--8--14--13--14------|
D----------------------9---|
A--------------------------|
E--------------------------|

X3 on the third time add on figure 1 at the end
"don't you know I've always loved you"
G------14--9--|   
D--11---------|
A-------------|
E-------------|

figure 1
G--8--6---14--13-----|
D-----------------9--|
A--------------------|
E--------------------|

                            "greater love has not a man"                           
G-------------------------------------------------------------------|
D-------------------------------------------------------------------|
A--7--6--12--11--12--11-----7--6--12--11--12--11--------------------|
E------------------------7------------------------7--7-7--7--7-7----|

G-----------------------------------|
D-----------------------------------|
A--7--6--12--11--12--11-------------|
E------------------------7--7-7--7--|

"don't you know I've always loved you...even before there was time.."
X3 on third time add on figure 2 at the end
G--------------------|
D--------------------|
A--12-11-9-----12-7--|
E----------9-9-------|

figure 2
G----------------------------------|
D----------------------------------|
A--6--4-------12--11---------------|
E--------9-9----------7-7--7-7--7--|

"la da da" X2
G---------------------------|
D---------------------------|
A--7--6--12--11--12--11-----|
E------------------------7--|

"don't you know I've always loved you...."
G--------------------------------------------------------------------|
D--------------------------------------------------------------------|
A--12-11-9-----12--7--12-11-9-----12-9-7--12-11-9-----12-7-6-4-------|
E----------9-9----------------9-9-----------------9-9-----------9-9--|

G------------------------|
D------------------------|
A--12--11----------------|
E----------7--7-7--7--7--|

G--------------------------------------------------------------|
D--------------------------------------------------------------|
A--12-11-9-----12-7--12-11-9-----12-9-7--12-11-9-----12-7-6-4--|
E----------9-9---------------9-9-----------------9-9-----------|

G-----------------------------------------------|
D-----------------------------------------------|
A-----------------12--11------------------------|
E--7-9-9---7-9-9----------7-7--0-7-7--0-7-7--9--|

G------------------------------------------------|
D------------------------------------------------|
A--7--6--12--11--12--11--------------------------|
E------------------------7--0-7-7--0-7-7--0-7-7--|

G--3\9--8--14--13--14--13--------------------11--------|
D--------------------------9--0-9-9--0-9-9------9------|
A-------------------------------------------------9----|
E---------------------------------------------------7--|

X4 on the 4th time don't play 7--7-7--7--7-7! just play the 7th once and you are done!
G----------------------------------------|
D----------------------------------------|
A--7--6--12--11--12--11------------------|
E------------------------7--7-7--7--7-7--|

I hope this is easy to understand.  Pay close attention to the little changes that 
occur by just adding one more note.  XOXOXOXO  

Suggest correction
Give kudos to tab author, rate the tab!
1 2 3 4 5
comments
print report bad tab
guest
You may want to rate the tab now too:
select rating
Wanna post a correction for this tab? Suggest correction