Oops, an error
Loading. Please wait.

These Thousand Hills Tab

version 1
version 1

Whole song

Interactive

5,314 views 3 this week
1 commentread comment
1 2 3 4 5
x 4
add to favorites
launch autoscroll
font size
0
reset
how to read this tab
guitar tuner
×
Best way to learn
"These Thousand Hills"
Autoscroll
slow
fast
+/-
esc
set tempo
stop
Here's guitar one (if you want it to sound like the recording you have to tune the whole 
down half a step its not really neccesary)

H=Hammer

E---0-----0------0-----0------------------------------0-----0----|
B-----2-3H-3-2-----2-3H-3-2---0----0------0----0--------2-3H-3-2-|
G--2-2----------2-2------------1-2H-2-1----1-2H-2-1--2-2---------|
D----------------------------2-----------2-----------------------|
A-0------------0------------------------------------0------------|
E---------------------------0-----------0------------------------|
 Hi_____lls roll...     ...O____F a mighty God  ...to my knees in

E---5-2-3H-2------0-----0--|
B--3-3------5-3----2-0-0-0-|
G-2--------------2---------|
D--------------------------|
A---------------0----------|
E---------------------0----|
praise...

PLAY ALSO WITH GUITAR 2 IT SOUNDS AWESOME
Suggest correction
comments
print report bad tab
1 comment total.
0 reply
Jesus freak 2 20 Nov 14, 2011 06:27 AM

Pretty good except for one note. here is how it is supposed to be.
e|---0-----0----------|
b|------2h3--3--------|
g|--2-2-------2-------|
d|--------------------|
a|-0------------------|
E|--------------------|
Other than that the tab is perfect.

guest
You may want to rate the tab now too:
select rating
Wanna post a correction for this tab? Suggest correction