Oops, an error
Loading. Please wait.

Alright Caroline chords

version 2
version 2

Whole song

130 views 12 this week
no commentswrite comment
1 2 3 4 5
3 more votes to show rating
add to favorites
×
Save as Personal and add changes to this tab that will be seen only by you. Learn more ›
×
You can save this tab as Personal to edit and correct it or add notes. All changes will be seen only by you. Learn more »
launch autoscroll
font size
0
reset
transpose
0
reset
display chords
guitar tuner
edit
Autoscroll
slow
fast
+/-
esc
set tempo
stop
Strumming
There is no strumming pattern for this song yet. and get +5 IQ
ALBUM:  Alright Caroline (newly-released single from 1999 demo)


[INTRO]
e|--------0h2--0--------0h2--0---------0h2--0--------0-----|
B|-----3-------------3-------------3--------------3-----3--|
G|---------------------------------------------------------|
D|--0-------------2----------------------------------------|
A|------------------------------2--------------------------|
E|---------------------------------------------------------|

e|--------0h2--0--------0h2--0---------0h2--0--------0-----|
B|-----3-------------3-------------3--------------3-----3--| let ring
G|---------------------------------------------------------|
D|--0-------------2----------------------------------------|
A|------------------------------2--------------------------|
E|---------------------------------------------------------|


[VERSE 1]
D            A                  Em       Em
 Tell the truth woman just this time, I know you can do it,
D        A                      Em           Em
 Your baby's eyes look just like mine, we could both see through it,
D            A                    Em       Em
 Tell the truth woman just this time,
         G              D                A
I didn't know how much you would take from me.

D                     A            Em          Em
 When you teach this little girl to walk, her laughter will be mine,
D                   A                 Em               Em
 There's a price to pay for a safe place to hide, tell me are you warm inside?
D            A                    Em       Em
 Tell the truth woman just this time,
G                D                  A
Seems that things could've been different, but
A
 I can't change it.


[CHORUS]
Em G         D
 So alright Caroline,
  D                       Em
I won't take nothing from you,
   G         D
 Alright Caroline,
D                    Em
Won't even tell the truth,
   G
 Alright


[VERSE 2]
D                     A              Em       Em
 Like a big black cloud coming down, it feels like I blew it
D                    A               Em          Em
 I never said we were messing around, but we could both see through it
D         A                     Em         Em         G            D
 Tell the truth woman just this time,
A
 Both, both of us
A
 Both of us, both of us.


[CHORUS]
Em G         D
 So alright Caroline,
  D                       Em
I won't take nothing from you,
   G         D
 Alright Caroline,
D                    Em
Won't even tell the truth,
   G       G
 Alright


[BRIDGE]
Em                      G                         Bm
 Time moves faster today, but let's not speak of this,
                 A
 Some things you cannot mend, yeah
Em                         G                    Bm
 And I'm watching her sleep, she's beautiful,
                                A
 And you tell me that I won't be seeing you again.


[CHORUS]
                 Em                  G   D
 You didn't even ask me, if it was alright
Em   G         D
 If it was alright,
D             Em
If it was alright,
   G         D
 If it was alright,
Em   G
   Alright


[BREAK]
Em  G               D    D
      I never claimed to understand you,
Em  G            D   D
      But I feel you, I feel you
Em  G                  D         D
      I never claimed to understand you,
Em  G                D   D
      But I feel you, I feel you


                  Em    G    D      D
It's gonna take a long time,
          Em          G      D      D
To grow young again, yeah, I know,
                  Em    G    D      D
It's gonna take a long time,
          Em        G    D      D
To grow young again,   I know,
                  Em       G           D      D
It's gonna take a long time, (alright Caroline)
          Em                 G      D      D
To grow young again, (alright Caroline),
                  Em       G           D      D
It's gonna take a long time, (alright Caroline)
          Em                 G      D      D
To grow young again, I know(alright Caroline)


[OUTRO]

e|--------0h2--0--------0h2--0---------0h2--0--------0-----|
B|-----3-------------3-------------3--------------3-----3--|
G|---------------------------------------------------------|
D|--0-------------2----------------------------------------|
A|------------------------------2--------------------------|
E|---------------------------------------------------------|

e|--------0h2--0--------0h2--0---------0h2--0--------0-----|
B|-----3-------------3-------------3--------------3-----3--| let ring
G|---------------------------------------------------------|
D|--0-------------2----------------------------------------|
A|------------------------------2--------------------------|
E|---------------------------------------------------------|
Suggest correction
Creating personal tab
Creating personal tab
You can edit any tab online and save it as your Personal.

You can edit, replace or remove any tab part or add personal notes – all changes will be seen only by you.

Personal tabs can be accessed anytime from any device, even offline.
Learn more »
Give kudos to tab author, rate the tab!
1 2 3 4 5
comments
print report bad tab
guest
You may want to rate the tab now too:
select rating
Wanna post a correction for this tab? Suggest correction