Oops, an error
Loading. Please wait.

Bonfire tab

version 2
version 2

Whole song

14,596 views 15 this week
3 commentsread comments
1 2 3 4 5
x 3
add to favorites
×
Save as Personal and add changes to this tab that will be seen only by you. Learn more ›
×
You can save this tab as Personal to edit and correct it or add notes. All changes will be seen only by you. Learn more »
launch autoscroll
font size
0
reset
how to read this tab
guitar tuner
edit
Autoscroll
slow
fast
+/-
esc
set tempo
stop
song      : bonfire
artist    : third eye blind
tabbed by : oneshotnothing


standard tuning


INTRO/VERSE

e--|--------------------------------|--------------------------------|
b--|----------7-----------2---------|------2-----------0---------0---|
g--|6-----------------2-------2---2-|----2-----2---2-------2-1-------|
d--|4-------7-----0-------------0---|0-------------2---------2-------|
a--|--------------------------------|--------------------------------|
E--|--------------------------------|--------------------------------|
    ^   ^   ^   ^   ^   ^   ^   ^   |^   ^   ^   ^   ^   ^   ^   ^   |
    1       2       3       4       |1       2       3       4       |

e--|--------------------------------|--------------------------------|
b--|----------7-----------2---3p2---|------2-----------5---------5---|
g--|6-----------------2-----------2-|----2-----2---2-------2-2h4--/6-|
d--|4-------7-----0-----------------|0-------------2---------2-------|
a--|--------------------------------|--------------------------------|
E--|--------------------------------|--------------------------------|
    ^   ^   ^   ^   ^   ^   ^   ^   |^   ^   ^   ^   ^   ^   ^   ^   |
    1       2       3       4       |1       2       3       4       |


PRECHORUS - pretty close to right i guess

e--|--------------------------------|
b--|--------------------------------|
g--|------9-------9-------9-------9-|
d--|----9-----9---------7-----7-----|
a--|7-------7---7---9-------9---9---|
E--|--------------------------------|
    ^   ^   ^   ^   ^   ^   ^   ^   |
    1       2       3       4       |

e--|--------------------------------------------------------|
b--|------------------------------------------10-h12-10-----|
g--|-----------9-------------9------------9--------------9--|
d--|-------9----------9------------9-h-11-------------------|
a--|11------------11-----11-----12--------------------------|
E--|--------------------------------------------------------|
    ^      ^      ^      ^      ^      ^      ^      ^      |
    1             2             3             4             |

e--|--------------------------------|
b--|--------------------------------|
g--|----------9---------------9-----|
d--|------9-------7-------7-------7-|
a--|7---7---7---7---9---9---9---9---|
E--|--------------------------------|
    ^   ^   ^   ^   ^   ^   ^   ^   |
    1       2       3       4       |

e--|--------------------------------------------|
b--|----------------------------10--------------|
g--|------------------9---------9---------------|
d--|-----------9-------------9--11--------------|
a--|11-----11-----11-----11-----12--------------|
E--|--------------------------------------------|
    ^      ^      ^      ^      ^   ^   ^   ^   |
    1             2             3       4       |


CHORUS - chords

e--|-----|-----|-----|-----|
b--|10---|10---|-----|10---|
g--|11---|9----|9----|11---|
d--|0----|11---|9----|11---|
a--|12---|0----|7----|9----|
E--|-----|-----|-----|-----|
    D     A     E     Fm


ENDING

e--|--------------------------------|--------------------------------|
b--|----------7-----------2---------|------2-----------0---------0---|
g--|6-----------------2-------2---2-|----2-----2---2-------2-1-------|
d--|4-------7-----0-------------0---|0-------------2---------2-------|
a--|--------------------------------|--------------------------------|
E--|--------------------------------|--------------------------------|
    ^   ^   ^   ^   ^   ^   ^   ^   |^   ^   ^   ^   ^   ^   ^   ^   |
    1       2       3       4       |1       2       3       4       |

e--|--------------------------0-----|--------------------------------|
b--|----------7-----------2-----2---|------2-----------5---------5---|
g--|6-----------------2-----------2-|----2-----2---2-------2-2h4--/6-|
d--|4-------7-----0-----------------|0-------------2---------2-------|
a--|--------------------------------|--------------------------------|
E--|--------------------------------|--------------------------------|
    ^   ^   ^   ^   ^   ^   ^   ^   |^   ^   ^   ^   ^   ^   ^   ^   |
    1       2       3       4       |1       2       3       4       |

e--|--------------------------0-----|2-----0-------------------------|
b--|----------7-----------2-----2---|--2-----2---0-----0---------0---|
g--|6-----------------2-----------2-|----2-----2---2-------2-1-------|
d--|4-------7-----0-----------------|------------------------2-------|
a--|--------------------------------|--------------------------------|
E--|--------------------------------|--------------------------------|
    ^   ^   ^   ^   ^   ^   ^   ^   |^   ^   ^   ^   ^   ^   ^   ^   |
    1       2       3       4       |1       2       3       4       |

e--|----------------------------0---|--2-----0-----------------------|
b--|----------7-----------2-------2-|----2-----------0---------------|
g--|6-----------------2-------2-----|2-----2-------2-1---------------|
d--|4-------7-----0-----------------|----------------2---------------|
a--|--------------------------------|--------------------------------|
E--|--------------------------------|--------------------------------|
    ^   ^   ^   ^   ^   ^   ^   ^   |^   ^   ^   ^   ^   ^   ^   ^   |
    1       2       3       4       |1       2       3       4       |

            
            
Suggest correction
Creating personal tab
Creating personal tab
You can edit any tab online and save it as your Personal.

You can edit, replace or remove any tab part or add personal notes – all changes will be seen only by you.

Personal tabs can be accessed anytime from any device, even offline.
Learn more »
Give kudos to tab author, rate the tab!
1 2 3 4 5
comments
print report bad tab
3 comments total.
0 reply
oneshotnothing 1,268 Nov 10, 2009 11:51 AM

wrote the intro wrong, update to follow.

0 reply
oneshotnothing 1,268 Nov 11, 2009 09:16 AM

Note: sometimes the third measure of the verse is played like this:

e--|--------------------------0-----|
b--|----------7-----------2-----2---|
g--|6-----------9-----2-----------2-|
d--|4-------7-----0-----------------|
a--|--------------------------------|
E--|--------------------------------|
^ ^ ^ ^ ^ ^ ^ ^ |
1 2 3 4 |

0 reply
gukid 10 Apr 10, 2010 05:16 PM

Maybe just to simplify the whole song, try playing around with:

Verse:
XX467X (or 9(11)(11)XX), X5765(5), X7997(7)
Picking is pretty easy to listen and work out.

Chorus:
XX79(10)X, X799XX, 9(11)(11)XX

guest
You may want to rate the tab now too:
select rating
Wanna post a correction for this tab? Suggest correction