Oops, an error
Loading. Please wait.

Darkness intro tab

version 1
version 1

Intro

Whole song

Interactive

1,778 views 3 this week
2 commentsread comments
1 2 3 4 5
1 last vote to show rating
add to favorites
×
Save as Personal and add changes to this tab that will be seen only by you. Learn more ›
×
You can save this tab as Personal to edit and correct it or add notes. All changes will be seen only by you. Learn more »
launch autoscroll
font size
0
reset
how to read this tab
guitar tuner
edit
Autoscroll
slow
fast
+/-
esc
set tempo
stop
Author
ok this is my first tab so be gentile.
this is the intro to darkness by third eye blind on the "blue" cd

standard tuning...
and it goes...a sumthin... like this...

\=slide
P=pick

E|-------------------------------|
B|-------------------------------|
G|------11---9--11---9-8\3-------|
D|----9----9-------9-------------|
A|--9----------------------------|
E|-------------------------------|


E|----------0------------------|
B|------------0----------------|
G|----1-4-1-----1-2p1--1-------|
D|--3--------------------4-----|
A|-----------------------------|
E|-----------------------------|


E|-----------------------------|
B|-----------------------------|
G|-------11---9--11---9-8\3----|
D|-----9----9-------9----------|
A|-5\9-------------------------|
E|-----------------------------|


E|----------0---------------|
B|--------------------------|
G|----1-4-1-----------------|
D|--3-----------------------|
A|--------------------------|
E|--------------------------|

i hope i didnt totally crap that one up but there is my best attempt
any suggestions are very welcome, i'm just kinda learning so i would love some critisism.
thanks and have fun

            
            
Suggest correction
Creating personal tab
Creating personal tab
You can edit any tab online and save it as your Personal.

You can edit, replace or remove any tab part or add personal notes – all changes will be seen only by you.

Personal tabs can be accessed anytime from any device, even offline.
Learn more »
Give kudos to tab author, rate the tab!
1 2 3 4 5
comments
print report bad tab
2 comments total.
0 reply
jason348 160 Nov 20, 2006 01:20 PM

the first part is good but the second part sucks ass

0 reply
NoodlesSE 55 Apr 15, 2012 11:22 PM

E|-------------------------------|
B|-------------------------------|
G|------11---9--11---9p8---------|
D|----9----9-------9-----9-------|
A|--9----------------------------|
E|-------------------------------|

E|----------0------------------|
B|------------0----------------|
G|------9----------------------|
D|----9---9-----6h7p6----------|
A|--7--------------------------|
E|-----------------------------|


Should make it easier.

guest
You may want to rate the tab now too:
select rating
Wanna post a correction for this tab? Suggest correction