Oops, an error
Loading. Please wait.

Deep Inside Of You Tab

version 1
version 1

Whole song

Interactive

95,103 views 21 this week
7 commentsread comments
1 2 3 4 5
x 30
add to favorites
launch autoscroll
font size
0
reset
how to read this tab
guitar tuner
×
Best way to learn
"Deep Inside Of You"
Autoscroll
slow
fast
+/-
esc
set tempo
stop
Person: mickster

song: deep inside of you

artist: third eye blind

tab: songs really easy...lyrics and stuff make it cool though, ill
include the lyrics as they come up....

PLAY THESE 3 PARTS TOGETHER WEN NEEDED: 

acoustic guitar(verse):let the bass line and chords ring

e---3-----3-3-3---3-----3-3-3---        
b---3-----3-3-3---3-----3-3-3---
g---0-------------0-------------
d---0-------------2-------------
a---2-------------2---3---------
E---3---2---------0-------------

2nd acoustic or light electric (verse): play this whole part twice when
u play the 1st acoustic guitar part once...

e---3-----3-----0-----0-----
b----3-----3-----3-----3----
g-----0-----0-----0-----0---
d---------------------------
a---------------------------
E---------------------------

light electric (verse): play 2ce when u play the first acoustic guitar
once

e-----5-7-5-----5-7-----5-7-5-7-8-7---
b---8---------8-------8---------------
g-------------------------------------
d-------------------------------------
a-------------------------------------
E-------------------------------------


lyrics for 1st verse: when we met light was shed thoughts free flow u
said uv got something deep inside of you...A wind chime voice sound,
sway your hips round rings true, it goes deep inside of you...these
secret garden beams change my life so it seems...Fall breeze blows
outside i don't break stride, my thoughts are warm, they go deep inside
of you

the second verse: Friends say iv changed i dont listen cause i live to
be deep inside of you Slide of her dress, shouts in darkness, i'm so
alive, I'm deep inside of you...you said boy make girl feel good but
still deep inside...still...

CHORUS (kind of):

acoustic or light electric maybe: here are the chords, listen for the
rhythm...

e---3---3---3---3---3---3---3---
b---3---1---0---1---3---1---3---
g---0---0---0---0---2---0---0---   GO BACK TO VERSE
d---0---2---0---2---0---2---0---
a---2---3---2---3---0---3---2---
E---3---0---3---0---0---0---3---

electric verse( or if you can, u can do this part with those chords up
there on 1 guitar and play this 1nce per every 2 chords up there):

e---3-3-2-3-2---------5---3-3-2-3-2------
b-------------3-3-3-----------------3-3-3
g----------------------------------------
d----------------------------------------
a----------------------------------------
E----------------------------------------

lyrics for "chorus": and i never felt alone till i met you
2nd time around:  and i never felt alone till i met you...and im
alright on my own...then i met you...and i'd know wat to do if i just
knew wats coming

go back to the verse again (2 the second verse)...then go back to the
"chorus" (2 the second time around)...now heres another part...

REPEAT BOTH THESE PARTS UNTIL YOU GET BACK TO THE VERSE

heavier electric:

e---3---3---3---3---3---
b---3---3---1---3---3---
g---0---2---0---2---0---   and so on.....
d---0---0---2---0---0---
a---2---0---3---0---2---
E---3-------0-------3---

and in the background...

heavier electric:

e----0-----0-----
b---3-3---3-3----
g------0-----0---    and so on.....
d----------------
a----------------
E----------------

lyrics for this new part:i would change myself if i could...i would
walk with my own people if i could find them...and i would say that im
sorry to you, im sorry to you...i dont want to call you, but then i
wanna call you...cause i dont want to crush you, but i feel like
crushing you...and its true i took for granted you were with me...i
breathe by your looks and you look right through me...and we were broke
and didn't know it...

lyrics for final verse: somethings gone you withdraw and im not strong
like before, i was deep inside of you...i can go nowhere i burn candles
and stare at a ghost, deep inside of you...and some great need in me,
starts to bleed, i ve lost my self there's nothing left, its all gone,
deep inside of you.....

and the final chord is

e---3---------------
b---1-let ring--0---
g---0---------------
d---0---------------
a---2---------------
E---3---------------

Suggest correction
comments
print report bad tab
7 comments total. Showing first comments.
0 reply
gregson 0 Feb 25, 2002 07:00 PM

this tab absolitely kicks ass u da bomb(not literally)

+1 reply
PurelyCanadian 52 Feb 05, 2007 05:41 PM

The notation itself is pretty good, the grammer and organization are not. Still get a decent rating from me though.

0 reply
Publicover 10 Feb 12, 2008 09:19 AM

This is a sick Tab. I agree the organization isn't the best haha but still 5 stars Thnx man

guest
You may want to rate the tab now too:
select rating
Wanna post a correction for this tab? Suggest correction