Oops, an error
Loading. Please wait.

Dopamine album tab

709 views 3 this week
3 commentsread comments
1 2 3 4 5
1 last vote to show rating
add to favorites
×
Save as Personal and add changes to this tab that will be seen only by you. Learn more ›
×
You can save this tab as Personal to edit and correct it or add notes. All changes will be seen only by you. Learn more »
launch autoscroll
font size
0
reset
how to read this tab
guitar tuner
edit
Autoscroll
slow
fast
+/-
esc
set tempo
stop
Author
Difficulty
Third Eye Blind
Dopamine (2015)
Tabbed by: Pasalacqua87



1. Everything is Easy

Tuning: Standard(EADGBe)


[Intro/Verse]

NOTE: Technically this is played on a bass(I saw it live), but many will
want to play it on
guitar. So the last D note will sound higher than it should be. You can always tune to
Drop D, but the song is
in standard.

Bass - Alex LeCavalier

e|-----------------------------------------------------|
B|-----------------------------------------------------|
G|-----------------------------------------------------|
D|-----------------------------------------------------|
A|------4-5-2-2-2-2-5-4p0-----4-4-5-5-5-5-5-5-5-5-4p0--|
E|-5-5-5------------------2-2--------------------------|

Guitar I - Kryz Reid (Comes in after one playthrough of the bass line, play x3)

e|-------------------------------------------------------------|
B|-------------------------------------------------------------|
G|----9---9---9------9---9---9-----9----9---9-----7---7---6----|
D|--7---7---7------7---7---7-----7---7----7-----7---7---7---7--|
A|0--------------7-------------9--------------5----------------|
E|-------------------------------------------------------------|

Guitar II - Stephan Jenkins (Come in same time as Kryz, play x3) These are just the
chords, not their
strumming pattern or amount of times played. It's simple to figure out. If you want,
there's a good Chord
tablature by another user you can find for this song for acoustic purposes.

e|-------------------------------------------------------------------------------------|
B|--------------3-3--------------------------------------------------------------------|
G|-2-2----------2-2--------------------------------------------------------------------|
D|-2-2--2-2-4-4-0-0--------------------------------------------------------------------|
A|-0-0--2-2-4-4------------------------------------------------------------------------|
E|------0-0-2-2------------------------------------------------------------------------|


[Pre-Chorus]

Guitar I (x2)

e|------------------------------------------------------------------|
B|------------------------------------------------------------------|
G|-9-9-9-9-9-9-9-9-9-9-9-9-9-9-9-9-7-7-7-7-7-7-7-7-6-6-6-6-4-4-2-2--|
D|-x-x-x-x-x-x-x-x-x-x-x-x-x-x-x-x-x-x-x-x-x-x-x-x-x-x-x-x-x-x-x-x--|
A|-7-7-7-7-7-7-7-7-7-7-7-7-7-7-7-7-5-5-5-5-5-5-5-5-4-4-4-4-2-2-0-0--|
E|------------------------------------------------------------------|

Guitar II (x2)

e|-0-----------2-------------------------------------------------------------------|
B|-0-----------2------------------3----------------3-------------------------------|
G|-1-----------2------------------2----------------2-------------------------------|
D|-2-----------4------------------0----------------0-------------------------------|
A|-2-----------4-------------------------------------------------------------------|
E|-0-----------2-------------------------------------------------------------------|


[Chorus]

Guitar I(Apply fast tremolo)/II (x2)

e|-------------0----------------2--------------------------------------------------|
B|-2-----------0----------------2------------------3-------------------------------|
G|-2-----------1----------------2------------------2-------------------------------|
D|-2-----------2----------------4------------------0-------------------------------|
A|-0-----------2----------------4--------------------------------------------------|
E|-------------0----------------2--------------------------------------------------|


[Post-Chorus]

Guitar I (x2) (Guitar II Plays Opening Chords)

e|------------------------------------------|
B|------------------------------------------|
G|------------------------------------------|
D|-9-9-9-9-7-9-9-9-9-7-9-9-9-9-7-9-9-9-9-7--|
A|------------------------------------------|
E|------------------------------------------|


[Chorus 2]

Guitar I


e|-------------0----------------2--------------------------------------------------|
B|-2-----------0----------------2------------------3-------------------------------|
G|-2-----------1----------------2------------------2-------------------------------|
D|-2-----------2----------------4------------------0-------------------------------|
A|-0-----------2----------------4--------------------------------------------------|
E|-------------0----------------2--------------------------------------------------|

Guitar II

e|---------------------------------------|
B|-10-x-10-10-10-10-x-10-x-10-x-x-10-10--|
G|-x--x-x--x--x---x-x-x--x--x-x-x-x--x---|
D|-7--x-7--7--7---7-x-7--x--7-x-x-7--7---|
A|---------------------------------------|
E|---------------------------------------|


[Breakdown]

Guitar I(Wah Effect)

This guitar part is shrouded in heavy wah and after-effects, so I couldn't narrow it
down 100%, but this seems
to sound just find with a wah pedal. Play this repeatedly until the "La da da da"
starts. Then play the
pre-chorus.

e|--------------------------|
B|----9-9-10-9-9-12-9-9-10--|
G|-9-9----------------------|
D|--------------------------|
A|--------------------------|
E|--------------------------|

Guitar II

e|-0-----------2-------------------------------------------------------------------|
B|-0-----------2------------------3----------------3-------------------------------|
G|-1-----------2------------------2----------------2-------------------------------|
D|-2-----------4------------------0----------------0-------------------------------|
A|-2-----------4-------------------------------------------------------------------|
E|-0-----------2-------------------------------------------------------------------|

Play this at "If you want to see me"


e|-------------------------------------------------------------|
B|-------------------------------------------------------------|
G|-----9---9---9-----9---9---9-----9---9---9-----7---7----6----|
D|---7---7---7-----7---7---7-----7---7---7-----7---7----7---7--|
A|-0-------------7-------------9-------------5-----------------|
E|-------------------------------------------------------------|


e|------------------------------------------------------------|
B|------------------------------------------------------------|
G|-6---6---6---6---6---6---6---6---7---6---6---6----9--7-6----|
D|---7---7---7---7---7---7---7---7---7---7---7----7--------7--|
A|------------------------------------------------------------|
E|------------------------------------------------------------|


[Outro]

Guitar I


e|-------------0----------------2--------------------------------------------------|
B|-2-----------0----------------2------------------3-------------------------------|
G|-2-----------1----------------2------------------2-------------------------------|
D|-2-----------2----------------4------------------0-------------------------------|
A|-0-----------2----------------4--------------------------------------------------|
E|-------------0----------------2--------------------------------------------------|

Guitar II

e|------------------------------------------|
B|------------------------------------------|
G|------------------------------------------|
D|-9-9-9-9-7-9-9-9-9-7-9-9-9-9-7-9-9-9-9-7--|
A|------------------------------------------|
E|------------------------------------------|

End on this:

e|------------------------------------------------------------------------------|
B|------------------------------------------------------------------------------|
G|------------------------------------------------------------------------------|
D|-7----------------------------------------------------------------------------|
A|-0----------------------------------------------------------------------------|
E|------------------------------------------------------------------------------|



2. Shipboard Cook

Tuning: Standard(EADGBe)

Beginning is piano and droning, but I'll transcribe the piano as a guitar part. It's easy.


[Intro]

Part I (x2)

e|----3-----3---------3-----3---------3-----3---------3-----3------|
B|--1---1-----1-----1---1-----1-----1---1-----1-----1---1-----1----|
G|--------0-----0---------0-----0---------0-----0---------0-----0--|
D|-3--------------2------------------------------------------------|
A|--------------------------------3---------------3----------------|
E|-----------------------------------------------------------------|

Part II (x1)

e|-----3-----3---------3-----3---------3-----3----------3-----3------|
B|---1---1-----1-----1---1-----1-----1---1-----1------1---1-----1----|
G|---------0-----0---------0-----0---------0-----0----------0-----0--|
D|---------------------------------3----------------3----------------|
A|-------------------------------------------------------------------|
E|-3---------------3-------------------------------------------------|

e|-----3-----3-----3-----1-----0---------3-----3---------3-----3------|
B|---1---1-----1-----1-----1-----1-----1---1-----1-----1---1-----1----|
G|---------0-----0-----0-----0-----0---------0-----0---------0-----0--|
D|--------------------------------------------------------------------|
A|-3------------------------------------------------------------------|
E|-----------------------------------3---------------3----------------|

Play the whole piano intro twice, however only play part one once the second
playthrough, play both parts
one after another TWICE. Sounds confusing, but if you know the song well enough it
shouldn't be.

Guitar I (x2) (Distorted, comes in on second playthrough of intro)

e|------------------------------------------------------------------------|
B|------------------------------------------------------------------------|
G|-----0-----0---0-----0-----0-----0---0----------------------------------|
D|-3-3---3-3---3---2-2---2-2---2-2---2-------2-----2---2-----2-----2---2--|
A|---------------------------------------3-3---3-3---3---3-3---3-3---3----|
E|------------------------------------------------------------------------|

e|--------------------------------------------------------------|
B|--------------------------------------------------------------|
G|--------------------------------------------------------------|
D|-------------------------------------------------3-----3---2--|
A|-----5-----5---5-----5-----5---5-----3-----3------------------|
E|-3-3---3-3---3---3-3---3-3---3---1-1---1-1---1-1---1-1---1----|

(x2)

e|------------------------------------------------------------------|
B|-1-1-1-1-1-1-1-1-1-1-1-1-1-1-1-1-0-0-0-0-0-0-0-0-0-0-0-0-0-0-0----|
G|-2-2-2-2-2-2-2-2-2-2-2-2-2-2-2-2-1-1-1-1-1-1-1-1-1-1--1-1-1-1-1---|
D|-2-2-2-2-2-2-2-2-2-2-2-2-2-2-2-2-0-0-0-0-0-0-0-0-0-0-0-0-0-0-0-0--|
A|-0-0-0-0-0-0-0-0-0-0-0-0-0-0-0-0-2-2-2-2-2-2-2-2-2-2-2-2-2-2-2-2--|
E|---------------------------------3-3-3-3-3-3-3-3-3-3-3-3-3-3-3-3--|
PM------------------------------------------------------------------|

It was too hard to write properly, but the tab below should be 5  and 6   so just use
those and follow the
                                                              8b9    9b10
written strumming pattern.
e|-----------------------------------------------------------------|
B|--5-5-5-6-6-6-5-5-5-6-6-5-5-6-6-5-5-5-6-6-6-5-5-5-6-6-6-5-5-6-6--|
G| ----------------------------------------------------------------|
D|-----------------------------------------------------------------|
A|-----------------------------------------------------------------|
E|-----------------------------------------------------------------|

e|-----------------------------------|
B|--1-1-1-1-1-1-1-1-1-1-1-1-1-1-1-1--|
G|--0-0-0-0-0-0-0-0-0-0-0-0-0-0-0-0--|
D|--2-2-2-2-2-2-2-2-2-2-2-2-2-2-2-2--|
A|--3-3-3-3-3-3-3-3-3-3-3-3-3-3-3-3--|
E|-----------------------------------|


[Verse 1]

(x2)

e|-0-0-0-0-0-0-0-0-0-0-0-0-1-1-0-0----------------------------------|
B|-1-1-1-1-1-1-1-1-1-1-1-1-1-1-1-1-5-5-5-5-6-6-5-5-5-5-5-5-6-6-5-5--|
G|-0-0-0-0-0-0-0-0-0-0-0-0-0-0-0-0-5-5-5-5-5-5-5-5-5-5-5-5-5-5-5-5--|
D|-3-3-3-3-3-3-3-3-2-2-2-2-2-2-2-2-5-5-5-5-5-5-5-5-5-5-5-5-5-5-5-5--|
A|---------------------------------3-3-3-3-3-3-3-3-3-3-3-3-3-3-3-3--|
E|------------------------------------------------------------------|

e|------------------------------------------------------------------|
B|------------------------------------------------------------------|
G|------------------------------------------------------------------|
D|-5-5-5-5-5-5-5-5-5-5-5-5-5-5-5-5-3-3-3-3-3-3-3-3-3-3-3-3-3-3-3-3--|
A|-5-5-5-5-5-5-5-5-5-5-5-5-5-5-5-5-3-3-3-3-3-3-3-3-3-3-3-3-3-3-3-3--|
E|-3-3-3-3-3-3-3-3-3-3-3-3-3-3-3-3-1-1-1-1-1-1-1-1-1-1-1-1-1-1-1-1--|


[Chorus]

e|-------------------------------------------------|
B|-------------------------------------------------|
G|-5--5--5--5--5--5--5--5--------------------------|
D|-5--5--5--5--5--5--5--5--5--5--5--5--3--3--3--3--|
A|-3--3--3--3--3--3--3--3--5--5--5--5--3--3--3--3--|
E|-------------------------3--3--3--3--1--1--1--1--|

e|----0-----0-----0-----0-----------------------------------------------------------|
B|----5-----5-----5-----5-----------------------------------------------------------|
G|-5--5--5--5--5--5--5--5-----------------------------------------------------------|
D|-5--5--5--5--5--5--5--5--5--5--5--5--5--5--5--5--3-3-3-3-3-3-3-3-3-3-3-3-3-3-3-3--|
A|-3--3--3--3--3--3--3--3--5--5--5--5--5--5--5--5--3-3-3-3-3-3-3-3-3-3-3-3-3-3-3-3--|
E|-------------------------3--3--3--3--3--3--3--3--1-1-1-1-1-1-1-1-1-1-1-1-1-1-1-1--|

e|----------------------------------3--3--3--3--3--3--3--3--|
B|-5-5-5-5-5-5-5-5-5-5-5-5-5-5-5-5--3--3--3--3--3--3--3--3--|
G|-5-5-5-5-5-5-5-5-5-5-5-5-5-5-5-5--0--0--0--0--0--0--0--0--|
D|-5-5-5-5-5-5-5-5-5-5-5-5-5-5-5-5--0--0--0--0--0--0--0--0--|
A|-3-3-3-3-3-3-3-3-3-3-3-3-3-3-3-3--2--2--2--2--2--2--2--2--|
E|----------------------------------3--3--3--3--3--3--3--3--|


[Verse 2]

 Guitar is clean with a touch of chorus effect (x2)

e|--------------------------------------------------------------|
B|--------------------------------------------------------------|
G|-----------0--------------0------0-----0---0------------------|
D|---------2--------2-----2------------------------3-----3---3--|
A|-0-0-3-0------3-3---3-3------2-2---2-2---2--------------------|
E|---------------------------------------------1-1---1-1---1----|

(Pre-Chorus) Distortion returns (x2)

Play 5  as written until the chorus returns. Once again, too hard to write due to formatting.
     b8

e|--------------------------------------------------------------------|
B|-5-5-5-5-5-5-5-5-5-5-5-5-5-5-5-5-5-5-5-5-5-5-5-5-5-5-5-5-5-5-5------|
G|--------------------------------------------------------------------|
D|--------------------------------------------------------------------|
A|--------------------------------------------------------------------|
E|---------------------------------------------------------------13/--|

Play chorus like normal until the second iteration of the F power chord, and instead
play this:

e|----------------------------------|
B|------------------13-15-15b17~~~--|
G|----------------------------------|
D|-3-3-3-3-3-3-3-3------------------|
A|-3-3-3-3-3-3-3-3------------------|
E|-1-1-1-1-1-1-1-1------------------|


[Outro]

e|-----------------------------------------------------------------------------|
B|-----------------------------------------------------------------------------|
G|-5-5-5-5-5-5-5-5-5-5-5-5-12-12-12-12-101010101010101012-12-12-12-------------|
D|-5-5-5-5-5-5-5-5-5-5-5-5-12-12-12-12-101010101010101012-12-12-12-------------|
A|-3-3-3-3-3-3-3-3-3-3-3-3-10-10-10-10-8-8-8-8-8-8-8-8-10-10-10-10-------------|
E|-----------------------------------------------------------------------------|

e|-----------------------------------------------------------------------------------|
B|-----------------------------------------------------------------------------------|
G|-5-5-5-5-5-5-5-5-5-5-5-5-12-12-12-12-101010101010101010101010101010-10-10----------|
D|-5-5-5-5-5-5-5-5-5-5-5-5-12-12-12-12-101010101010101010101010101010-10-10----------|
A|-3-3-3-3-3-3-3-3-3-3-3-3-10-10-10-10-8-8-8-8-8-8-8-8-8-8-8-8-8-8-8--8--8-----------|
E|-----------------------------------------------------------------------------------|

Let last chord ring until acoustic comes back in. Play last part same as chorus, but
with these 3 chords
until the song fades out.

e|--------------------------------------------------------------------------------|
B|-----------------------1--------------------------------------------------------|
G|-0--------0------------0--------------------------------------------------------|
D|-2--------0------------3--------------------------------------------------------|
A|-3--------2---------------------------------------------------------------------|
E|----------3---------------------------------------------------------------------|



3. All the Souls

Tuning: Standard(EADGBe)

This song is all basic chords on the acoustic guitar, so I'll format it like a chord tab.


Am        Em
I've been hiding out
     D
In a city landscape
D                Am       Em
I met a frontier girl
        D                          C                G
With a firm handshake and she said boy don't let me down
          G
She said all the souls that came before
       Am                     C
Caught their justice from the ground
   Em                   Am     Em              D
So you and I can't give it up, you and I can't give it up now
C
Standing your ground
Am          Em                 D
Oh and the camera on your cell phone screen You miss everything
Am                    Em          D
Did you ever feel the pull of the cotton wool
         C               G
She said boy don't let me down
         G
She said all the souls that came before
              Am               C
Caught their justice from the ground
   Em              Am          Em              D
So you and I can't give it up, you and I can't give it up now
    G
And all the souls that came before
       Am                     C
Caught their justice from the ground
   Em              Am          Em              D
So you can I can't give it up, you and I can't give it up now
C                   G
Standing your ground
C                   G
Standing your ground
C                   G
Standing your ground

C# G F D# G

G
All the souls that came before
             Am               C
Caught their justice from the ground
Em                 Am          Em              D
So you and I can't give it up, you and I can't give it up now
C
Standing your ground
G
All the souls that came before
             Am               C
Caught their justice from the ground
Em                 Am          Em              D
So you and I can't give it up, you and I can't give it up now
C
Standing your ground
              G Am C
Standing your ground
              G Am C
Standing your ground
              G Am C G



4. Dopamine

Tuning: Drop D(DADBGe)


[Intro]

Guitar I (With heavy reverb)(x8)

e|--------------------------------------------------------------------------------------|
B|-9-9-8-9-109-8-9----------------------------------------------------------------------|
G|-9-9-9-9-9-9-9-9----------------------------------------------------------------------|
D|--------------------------------------------------------------------------------------|
A|--------------------------------------------------------------------------------------|
E|--------------------------------------------------------------------------------------|

Guitar II (Clean w/slight reverb; Come in after 4 repeats of Guitar I intro)

Play the two notes before the brackets, then the notes in them (x8), then outside the brackets.
e|-7------[-----7--]----------------------------------------------------------------|
B|----9---[-9------]----------------------------------------------------------------|
G|--------[---9----]----------------------------------------------------------------|
D|--------[--------]----------------------------------------------------------------|
A|--------[--------]----------------------------------------------------------------|
E|--------[--------]-14\------------------------------------------------------------|

RIFF A: Guitar I (Clean)(x8)
                          After 8th playthrough play this:
e|----------------------]-----------|
B|----------------------]-----------|
G|----------------------]-----------|
D|-9p7h9p7--7h9p7h9p7---]-14-14-14--|
A|----------------------]-----------|
E|----------------------]-----------|


[Verse 1]

e|-----------------------------------------------------|
B|-7--7-7--------7--7-7----------7--7-7--7--7----------|
G|-9--9-9--------9--9-9----------6--6-6--6--6----------|
D|-7--7-7--------7--7-7----------7--7-7-------------7--|
A|--------------------------------------------------7--|
E|--------------------------------------------------7--|

e|--------14-12-10-9--------14-12-10-9------------------|
B|-7--7-7------------7--7-7-14-12-10-107--7-7--7--7-----|
G|-9--9-9------------9--9-9------------6--6-6--6--6-----|
D|-7--7-7------------7--7-7------------7--7-7--------7--|
A|---------------------------------------------------7--|
E|---------------------------------------------------7--|


[Pre-Chorus]

I don't think any actual guitar plays here, but these are the proper notes
in power chord form.

e|---------------------------------------------------------------------------------|
B|---------------------------------------------------------------------------------|
G|---------------------------------------------------------------------------------|
D|-2------------4-----------------12-----------------------------------------------|
A|-2------------4-----------------12-----------------------------------------------|
E|-2------------4-----------------12-----------------------------------------------|


[Chorus]

e|----------------------------------------------------------------------------------|
B|----------------------------------------------------------------------------------|
G|----------------------------------------------------------------------------------|
D|-7-7-7-7-7-7-7-7-9-9-9-9-9-9-9-9-12-12-12-12-12-12-12-12-11-11-11-11-11-11-11-11--|
A|-7-7-7-7-7-7-7-7-9-9-9-9-9-9-9-9-12-12-12-12-12-12-12-12-12-12-12-12-12-12-12-12--|
E|-7-7-7-7-7-7-7-7-9-9-9-9-9-9-9-9-12-12-12-12-12-12-12-12-11-11-11-11-11-11-11-11--|

e|----------------------------------------------|
B|-----0-0-----0-0------------------------------|
G|-----6-6-----6-6-----7-7-----7-7-11-11-11-11--|
D|-7-7-7-7-7-7-7-7-9-9-9-9-9-9-9-9-12-12-12-12--|
A|-7-7-7-7-7-7-7-7-9-9-9-9-9-9-9-9-12-12-12-12--|
E|-7-7-7-7-7-7-7-7-9-9-9-9-9-9-9-9-12-12-12-12--|

                          After 8th playthrough play this:
e|----------------------]-----------|
B|----------------------]-----------|
G|----------------------]-----------|
D|-9p7h9p7--7h9p7h9p7---]-14-14-14--|
A|----------------------]-----------|
E|----------------------]-----------|


[Verse 2]

e|--------14-12-10-9--------14-12-10-9-------------------------------|
B|-7--7-7------------7--7-7-14-12-10-10------7--7-7--7--7----------|
G|-9--9-9------------9--9-9------------------6--6-6--6--6----------|
D|-7--7-7------------7--7-7------------------7--7-7-------------7--|
A|--------------------------------------------------------------7--|
E|--------------------------------------------------------------7--|

e|--------14-12-10-9--------14-12-10-9------------------|
B|-7--7-7------------7--7-7-14-12-10-107--7-7--7--7-----|
G|-9--9-9------------9--9-9------------6--6-6--6--6-----|
D|-7--7-7------------7--7-7------------7--7-7--------7--|
A|---------------------------------------------------7--|
E|---------------------------------------------------7--|


[Chorus 2]

e|----------------------------------------------------------------------------------|
B|----------------------------------------------------------------------------------|
G|----------------------------------------------------------------------------------|
D|-7-7-7-7-7-7-7-7-9-9-9-9-9-9-9-9-12-12-12-12-12-12-12-12-11-11-11-11-11-11-11-11--|
A|-7-7-7-7-7-7-7-7-9-9-9-9-9-9-9-9-12-12-12-12-12-12-12-12-12-12-12-12-12-12-12-12--|
E|-7-7-7-7-7-7-7-7-9-9-9-9-9-9-9-9-12-12-12-12-12-12-12-12-11-11-11-11-11-11-11-11--|

e|----------------------------------------------|
B|-----0-0-----0-0------------------------------|
G|-----6-6-----6-6-----7-7-----7-7-11-11-11-11--|
D|-7-7-7-7-7-7-7-7-9-9-9-9-9-9-9-9-12-12-12-12--|
A|-7-7-7-7-7-7-7-7-9-9-9-9-9-9-9-9-12-12-12-12--|
E|-7-7-7-7-7-7-7-7-9-9-9-9-9-9-9-9-12-12-12-12--|


[Bridge]

Guitar I (x4)

e|----------------------]-----------|
B|----------------------]-----------|
G|----------------------]-----------|
D|-9p7h9p7--7h9p7h9p7---]-14-14-14--|
A|----------------------]-----------|
E|----------------------]-----------|

Guitar II (x2)

e|----------------------------------------------------------|
B|----------------------------------------------------------|
G|----------------------------------------------------------|
D|-2-2-2-2-2-2-2-2-4-4-4-4-4-4-4-4-12-12-12-12-12-12-12-12--|
A|-2-2-2-2-2-2-2-2-4-4-4-4-4-4-4-4-12-12-12-12-12-12-12-12--|
E|-2-2-2-2-2-2-2-2-4-4-4-4-4-4-4-4-12-12-12-12-12-12-12-12--|

(Breakdown) Sounds like a constant steady A chord, Kryz just strums softly over and over.

e|------------------------------------------------------------------------------|
B|-2----------------------------------------------------------------------------|
G|-2----------------------------------------------------------------------------|
D|-2----------------------------------------------------------------------------|
A|-0----------------------------------------------------------------------------|
E|------------------------------------------------------------------------------|


[Solo]

Guitar I(Distorted)

e|-----------------------------------------------------------------|
B|------------10--12------12b14--12-10-12-10----12b14-12-10-12-10--|
G|-----------------------------------------------------------------|
D|------7----------------------------------------------------------|
A|------7----------------------------------------------------------|
E|-14\--7----------------------------------------------------------|
(x3) on the riff below
e|---------------------------------------|
B|-12h14p12\-10-/12--12h14p12h14p12\-10--|
G|---------------------------------------|
D|---------------------------------------|
A|---------------------------------------|
E|---------------------------------------|
End with this riff below
e|--------------------------|
B|-10-10-10-10-10-10-10-10--|
G|--------------------------|
D|--------------------------|
A|--------------------------|
E|--------------------------|

Guitar II

e|----------------------------------------------------------------------------------|
B|----------------------------------------------------------------------------------|
G|----------------------------------------------------------------------------------|
D|-7-7-7-7-7-7-7-7-9-9-9-9-9-9-9-9-12-12-12-12-12-12-12-12-11-11-11-11-11-11-11-11--|
A|-7-7-7-7-7-7-7-7-9-9-9-9-9-9-9-9-12-12-12-12-12-12-12-12-12-12-12-12-12-12-12-12--|
E|-7-7-7-7-7-7-7-7-9-9-9-9-9-9-9-9-12-12-12-12-12-12-12-12-11-11-11-11-11-11-11-11--|

e|----------------------------------------------|
B|-----0-0-----0-0------------------------------|
G|-----6-6-----6-6-----7-7-----7-7-11-11-11-11--|
D|-7-7-7-7-7-7-7-7-9-9-9-9-9-9-9-9-12-12-12-12--|
A|-7-7-7-7-7-7-7-7-9-9-9-9-9-9-9-9-12-12-12-12--|
E|-7-7-7-7-7-7-7-7-9-9-9-9-9-9-9-9-12-12-12-12--|


[Chorus 3]

Guitar I

e|----------------------------------------------------------------------------------|
B|----------------------------------------------------------------------------------|
G|----------------------------------------------------------------------------------|
D|-7-7-7-7-7-7-7-7-9-9-9-9-9-9-9-9-12-12-12-12-12-12-12-12-11-11-11-11-11-11-11-11--|
A|-7-7-7-7-7-7-7-7-9-9-9-9-9-9-9-9-12-12-12-12-12-12-12-12-12-12-12-12-12-12-12-12--|
E|-7-7-7-7-7-7-7-7-9-9-9-9-9-9-9-9-12-12-12-12-12-12-12-12-11-11-11-11-11-11-11-11--|

e|----------------------------------------------|
B|-----0-0-----0-0------------------------------|
G|-----6-6-----6-6-----7-7-----7-7-11-11-11-11--|
D|-7-7-7-7-7-7-7-7-9-9-9-9-9-9-9-9-12-12-12-12--|
A|-7-7-7-7-7-7-7-7-9-9-9-9-9-9-9-9-12-12-12-12--|
E|-7-7-7-7-7-7-7-7-9-9-9-9-9-9-9-9-12-12-12-12--|


Guitar II

e|----------------------]-----------|
B|----------------------]-----------|
G|----------------------]-----------|
D|-9p7h9p7--7h9p7h9p7---]-14-14-14--|
A|----------------------]-----------|
E|----------------------]-----------|


[Outro]

Guitar I (x4)

e|----------------------------------|
B|----------------------------------|
G|----------------------------------|
D|-141411119-9-11110-0-0-0-0-0-0-0--|
A|-0-0-0-0-0-0-0-0-0-0-0-0-0-0-0-0--|
E|-----------------0-0-0-0-0-0-0-0--|

Guitar II (x4)

e|----------------------------------|
B|----------------------------------|
G|----------------------------------|
D|-7-7-7-7-7-7-7-7-0-0-0-0-0-0-0-0--|
A|-7-7-7-7-7-7-7-7-0-0-0-0-0-0-0-0--|
E|-7-7-7-7-7-7-7-7-0-0-0-0-0-0-0-0--|

End on:

e|------------------------------------------------------------------------------|
B|------------------------------------------------------------------------------|
G|------------------------------------------------------------------------------|
D|-7----------------------------------------------------------------------------|
A|-7----------------------------------------------------------------------------|
E|-7----------------------------------------------------------------------------|



5. Rites of Passage

Tuning: Open D(DADF#AE)


[Intro]

This is actually Stephan Jenkins' voice with odd vocal effects, but these are the notes.
You can portray a
similar effect with delay and reverb.

e|-----------------------------------------------------------------------------------|
B|-----------------------------------------------------------------------------------|
G|---5--5-5-----------5--5-5---------------------------------------------------------|
D|------------7--7-7----------7--7-7-------------------------------------------------|
A|-----------------------------------------------------------------------------------|
E|-----------------------------------------------------------------------------------|

Guitar I(Clean) (x2)

These are some really odd Open D octaves, so mute the two strings in between the notes
to get the proper sound

e|----------------------------------------|
B|----------------------------------------|
G|-5/7-7-8-8-8-8-12-12-12-12-12-12-12-12--|
D|----------------------------------------|
A|----------------------------------------|
E|-5/7-7-9-9-9-9-12-12-12-12-12-12-12-12--|

Guitar II (Slightly Distorted)(x2)

e|------------------------------------------|
B|------------------------------------------|
G|------------------------------------------|
D|-7-7-7-7-9-9-9-9-12-12-12-12-12-12-12-12--|
A|-7-7-7-7-9-9-9-9-12-12-12-12-12-12-12-12--|
E|-7-7-7-7-9-9-9-9-12-12-12-12-12-12-12-12--|


[Verse 1]

Guitar rests until the lyric, "In your soul there's a broken bone," playing:

Guitar I

e|-------------------------------------------------------------------------------|
B|-------------------------------------------------------------------------------|
G|-------------------------------------------------------------------------------|
D|-7-7---7-7---7-7---7-7----7-7----7-7-----7-7-----8-8-----8-8-----8-8-----8-8-----8-8----8-8-----8-8-----|
A|----7-7---7-7---7-7---7-7-----7-7----7-7-----7-7-----7-7-----7-7-----7-7-----7-7-----7-7----7-7-----7-7--|
E|-------------------------------------------------------------------------------|
PM-------------------------------------------------------------------------------|

e|---------------------------------------------------------|
B|-12---11-------------------------------------------------|
G|------------7-7---8----------8-8-8------12--------12-12--|
D|--------------------------------------------------12-12--|
A|---------------------------------------------------------|
E|---------------------------------------------------------|


[Pre-Chorus]

(x2)

Guitar I

e|-----------------------------------------------------------------------------------|
B|-----------------------------------------------------------------------------------|
G|-7--7--8-7-5-0---------------------------------------------------------------------|
D|-------------0---------------------------------------------------------------------|
A|-------------0---------------------------------------------------------------------|
E|-7--7--7-7-7-0---------------------------------------------------------------------|


[Chorus]

Guitar I (x2)

e|----------------------------------------|
B|----------------------------------------|
G|-5/7-7-8-8-8-8-12-12-12-12-12-12-12-12--|
D|----------------------------------------|
A|----------------------------------------|
E|-5/7-7-9-9-9-9-12-12-12-12-12-12-12-12--|

Guitar II (x2)

e|------------------------------------------|
B|------------------------------------------|
G|------------------------------------------|
D|-7-7-7-7-9-9-9-9-12-12-12-12-12-12-12-12--|
A|-7-7-7-7-9-9-9-9-12-12-12-12-12-12-12-12--|
E|-7-7-7-7-9-9-9-9-12-12-12-12-12-12-12-12--|


Guitar I "What's done is done; move on to another one"

e|----------------------------------------------|
B|----------------------------------------------|
G|-7--7-7---------------------------------------|
D|---------14-14-14-14-12-12-12-12-12-12-12-12--|
A|----------------------------------------------|
E|-7--7-7--14-14-14-14-12-12-12-12-12-12-12-12--|

Guitar II

e|----------------------------------------------|
B|----------------------------------------------|
G|----------------------------------------------|
D|-7-7-7-7-14-14-14-14-12-12-12-12-12-12-12-12--|
A|-7-7-7-7-14-14-14-14-12-12-12-12-12-12-12-12--|
E|-7-7-7-7-14-14-14-14-12-12-12-12-12-12-12-12--|

"It's Rites of Passage..."

Guitar I

e|----------------------------------------|
B|----------------------------------------|
G|-5/7-7-8-8-8-8-12-12-12-12-12-12-12-12--|
D|----------------------------------------|
A|----------------------------------------|
E|-5/7-7-9-9-9-9-12-12-12-12-12-12-12-12--|

Guitar II

e|------------------------------------------|
B|------------------------------------------|
G|------------------------------------------|
D|-7-7-7-7-9-9-9-9-12-12-12-12-12-12-12-12--|
A|-7-7-7-7-9-9-9-9-12-12-12-12-12-12-12-12--|
E|-7-7-7-7-9-9-9-9-12-12-12-12-12-12-12-12--|


[Verse 2]

(x2)
e|---------------------------------------------------------|
B|-12---11-------------------------------------------------|
G|------------7-7---8----------8-8-8------12--------12-12--|
D|--------------------------------------------------12-12--|
A|---------------------------------------------------------|
E|---------------------------------------------------------|


[Chorus 2]

Guitar I (x2)

e|----------------------------------------|
B|----------------------------------------|
G|-5/7-7-8-8-8-8-12-12-12-12-12-12-12-12--|
D|----------------------------------------|
A|----------------------------------------|
E|-5/7-7-9-9-9-9-12-12-12-12-12-12-12-12--|

Guitar II (x2)

e|------------------------------------------|
B|------------------------------------------|
G|------------------------------------------|
D|-7-7-7-7-9-9-9-9-12-12-12-12-12-12-12-12--|
A|-7-7-7-7-9-9-9-9-12-12-12-12-12-12-12-12--|
E|-7-7-7-7-9-9-9-9-12-12-12-12-12-12-12-12--|


Guitar I "What's done is done; move on to another one"

e|----------------------------------------------|
B|----------------------------------------------|
G|-7--7-7---------------------------------------|
D|---------14-14-14-14-12-12-12-12-12-12-12-12--|
A|----------------------------------------------|
E|-7--7-7--14-14-14-14-12-12-12-12-12-12-12-12--|

Guitar II

e|----------------------------------------------|
B|----------------------------------------------|
G|----------------------------------------------|
D|-7-7-7-7-14-14-14-14-12-12-12-12-12-12-12-12--|
A|-7-7-7-7-14-14-14-14-12-12-12-12-12-12-12-12--|
E|-7-7-7-7-14-14-14-14-12-12-12-12-12-12-12-12--|

"It's Rites of Passage..." (x2 this time)

Guitar I

e|----------------------------------------|
B|----------------------------------------|
G|-5/7-7-8-8-8-8-12-12-12-12-12-12-12-12--|
D|----------------------------------------|
A|----------------------------------------|
E|-5/7-7-9-9-9-9-12-12-12-12-12-12-12-12--|

Guitar II

e|------------------------------------------|
B|------------------------------------------|
G|------------------------------------------|
D|-7-7-7-7-9-9-9-9-12-12-12-12-12-12-12-12--|
A|-7-7-7-7-9-9-9-9-12-12-12-12-12-12-12-12--|
E|-7-7-7-7-9-9-9-9-12-12-12-12-12-12-12-12--|



[Bridge]

Guitar I/II(Slightly Distorted)

e|------------------------------------------------------------------|
B|------------------------------------------------------------------|
G|-------2-2-2-3-3-3-----------------------2-2-2-12---------8-7-----|
D|-0-0-0-2-2-2-4-4-4-0-0-0-0-0-0-0-0-0-0-0-2-2-2-12-------------7/--|
A|-0-0-0-2-2-2-4-4-4-0-0-0-0-0-0-0-0-0-0-0-2-2-2-12-----------------|
E|-0-0-0-2-2-2-4-4-4-0-0-0-0-0-0-0-0-0-0-0-2-2-2-12-----------------|


[Breakdown]

Guitar I This whole part is played by hybrid picking the octaves then sliding to the
next octave
    (x2)         (x1)                        (x1)
              "This pain's the same..."

e|-------------[--------------------]-------------------------------------------------------|
B|-------------[----------------0---]-------------------------------------------------------|
G|-7---8---12--[-7------------------]----7-----8-----12------7----8---12-12-12-12-12-12-12--|
D|-------------[------14---12-------]---------------------------------12-12-12-12-12-12-12--|
A|-------------[--------------------]---------------------------------12-12-12-12-12-12-12--|
E|-7---9----12-[-7----14---12-------]--7----9-----12-------7----9-----12-12-12-12-12-12-12--|


[Chorus 3]

Guitar I (x2)

e|----------------------------------------|
B|----------------------------------------|
G|-5/7-7-8-8-8-8-12-12-12-12-12-12-12-12--|
D|----------------------------------------|
A|----------------------------------------|
E|-5/7-7-9-9-9-9-12-12-12-12-12-12-12-12--|

Guitar II (x2)

e|------------------------------------------|
B|------------------------------------------|
G|------------------------------------------|
D|-7-7-7-7-9-9-9-9-12-12-12-12-12-12-12-12--|
A|-7-7-7-7-9-9-9-9-12-12-12-12-12-12-12-12--|
E|-7-7-7-7-9-9-9-9-12-12-12-12-12-12-12-12--|


Guitar I "What's done is done; move on to another one"

e|----------------------------------------------|
B|----------------------------------------------|
G|-7--7-7---------------------------------------|
D|---------14-14-14-14-12-12-12-12-12-12-12-12--|
A|----------------------------------------------|
E|-7--7-7--14-14-14-14-12-12-12-12-12-12-12-12--|

Guitar II

e|----------------------------------------------|
B|----------------------------------------------|
G|----------------------------------------------|
D|-7-7-7-7-14-14-14-14-12-12-12-12-12-12-12-12--|
A|-7-7-7-7-14-14-14-14-12-12-12-12-12-12-12-12--|
E|-7-7-7-7-14-14-14-14-12-12-12-12-12-12-12-12--|

"It's Rites of Passage..."

Guitar I/II (x2)

e|------------------------------------------|
B|------------------------------------------|
G|-8-8-8-8-8-8-8-8-12-12-12-12-12-12-12-12--|
D|-9-9-9-9-9-9-9-9-12-12-12-12-12-12-12-12--|
A|-9-9-9-9-9-9-9-9-12-12-12-12-12-12-12-12--|
E|-9-9-9-9-9-9-9-9-12-12-12-12-12-12-12-12--|


[Solo]

Guitar II (Full on distortion) (x4)

e|------------------------------------------|
B|------------------------------------------|
G|------------------------------------------|
D|-7-7-7-7-9-9-9-9-12-12-12-12-12-12-12-12--|
A|-7-7-7-7-9-9-9-9-12-12-12-12-12-12-12-12--|
E|-7-7-7-7-9-9-9-9-12-12-12-12-12-12-12-12--|


Guitar III(Heavy Distortion)

e|------------------------------------------------------------------|
B|-14b16-14p12h14p12h14-14b16-14p12h14p12h14-12------------15-------|
G|-----------------------------------------------14h1614h16--16-14--|
D|------------------------------------------------------------------|
A|------------------------------------------------------------------|
E|------------------------------------------------------------------|

e|-------------------------------------------------------------------------|
B|-14b16-14p12h14p12h14-14b16-14p12h14p12h14-12----------------------------|
G|-------------------------------------------------------------------------|
D|-----------------------------------------------11pb12br-7h9-7h9-7h9-7h9--|
A|-------------------------------------------------------------------------|
E|-------------------------------------------------------------------------|

e|-----------------------------------------------------------------------|
B|-14b16-14p12h14p12h14-14b16-14p12h14p12h14-12--------------------------|
G|----------------------------------------------14h16-16-16-14h16-16-16--|
D|-----------------------------------------------------------------------|
A|-----------------------------------------------------------------------|
E|-----------------------------------------------------------------------|

e|-----------------------------------------------------------------------------------|
B|-----------------------------------------------------------------------------------|
G|-----------------------------------------------------------------------------------|
D|-11pb12br-9p7-9p7-9/11-9p7-9p7-9p7---11pb12br-9p7-9p7-9/11-9p7-9p7-9p7-------------|
A|-----------------------------------7-----------------------------------7-9\--------|
E|-----------------------------------------------------------------------------------|


[Outro]

Guitar I (Clean) This riff repeats until the guitar fades into the electronic music.
Play it in a kind of
reggae-ish way.

e|----------------------------------------------------------------------------|
B|----------------------------------------------------------------------------|
G|-7-x-x-x-7-x-7-x-7-x-x-x-x-7-x-7-x-8-x-x-8-8-x-7h108-7-x-7-7-x-x-/10-x-/10--|
D|-7-x-x-x-7-x-7-x-7-x-x-x-x-7-x-7-x-7-x-x-7-7-x-7---7-7-x-7-7-x-x-/7-x-/7----|
A|----------------------------------------------------------------------------|
E|----------------------------------------------------------------------------|



6. Back to Zero

Tuning: Standard(EADGBe)


[Intro]

Guitar I (x4) (Clean)

e|---------------------------------------------------------------------------|
B|---------------------------------------------------------------------------|
G|---------------------------------------------------------------------------|
D|--------8------------------8----------------5---8---6---5---5---6---6---5--|
A|---10-------11---10---10-------11---10-------------------------------------|
E|-8----8---8----8----8----8---8----8----8--6---6---6---6---6---6---6---6----|

Guitar II (Reid; clean w/ chorus) (x4)

e|----------------------------------------------------------------|
B|----------------------------------------------------------------|
G|-8-8-8-8-8-8-8-8-8-8-8-8-8-8-8-8-7-7-7-7-7-7-7-7-7-7-7-7-7-7-7--|
D|----------------------------------------------------------------|
A|----------------------------------------------------------------|
E|----------------------------------------------------------------|


[Verse 1]

Play at "And change my clothes..."  and "I'll just let it go..."

e|--------------------------------------------------|
B|--------------------------------------------------|
G|-8-8-8-8-8-8-8-8-8-8-8-8-8-8-8-8-7-7-7-7-7-7-7-7--|
D|--------------------------------------------------|
A|--------------------------------------------------|
E|--------------------------------------------------|

Starts at "Oh tonight I'm gonna scream..."

e|------------------------------------------------------|
B|-11----8-------11--------------11-------8---------11--|
G|-12----10------12--------------12-------10--------12--|
D|------------------------------------------------------|
A|--------------------8-8-10-8--------------------------|
E|------------------------------------------------------|


[Pre-Chorus]

Guitar I (x2)

e|----------------------------------|
B|----------------------------------|
G|----------------------------------|
D|----------------------------------|
A|-6-6-6-6-6-5-5-6-6-6-6-6-6-5-5----|
E|-------------------------------6--|


[Chorus]

(x2)

e|----------------------------|
B|----------------------------|
G|----------------------------|
D|-6-5-6-5-6-6-5-6-6-5-6-5----|
A|-------------------------6--|
E|----------------------------|

(x2)

e|-4-4-4-4--8-8-8-8--6-6-6-6-6-6-6-6--|
B|-4-4-4-4--8-8-8-8--6-6-6-6-6-6-6-6--|
G|-4-4-4-4--8-8-8-8--6-6-6-6-5-5-5-5--|
D|-6-6-6-6--10101010-8-8-8-8-8-8-8-8--|
A|-6-6-6-6--10101010-8-8-8-8-8-8-8-8--|
E|-4-4-4-4--8-8-8-8--6-6-6-6-6-6-6-6--|

(x2) The bends are all halves

e|--------------------------------------------------------------|
B|--------------------------------------------------------------|
G|-12-12-12-11-12-12-8-8---7-7-7-7-7-7-7-7-7b-7b-7b-7b-7b-7b-7--|
D|--------------------------------------------------------------|
A|--------------------------------------------------------------|
E|--------------------------------------------------------------|

(x1)

e|---------------------------------------------------------|
B|---------------------------------------------------------|
G|-----------------7-7-7-7-7-7-7-7-7b-7b-7b-7b-7b-7b-7b-7--|
D|---------------------------------------------------------|
A|---------------------------------------------------------|
E|-4-4-4-4-3-3-3-3-----------------------------------------|

Play the first half of the previous higher riff, then end on this:

e|------------------------------------------------------------------------------|
B|------------------------------------------------------------------------------|
G|-8----------------------------------------------------------------------------|
D|------------------------------------------------------------------------------|
A|------------------------------------------------------------------------------|vv
E|------------------------------------------------------------------------------|


[Breakdown]

Bass plays a meaty palm muting line, then guitar kicks in at "And I wonder if you knew
the pain I went
through to keep from calling you..."

(X5) NOTE: Don't play the higher octaves until playthrough 3!

e|-------------------------|
B|-10101010-10-8-----------|
G|----------------8--1010--|
D|-8-8-8-8--8--5-----------|
A|----------------6--8-8---|
E|-------------------------|


[Interlude/Outro]

Guitar I plays this simple little chord until the song ends

e|---------------------------------|
B|-8-8-8-8-8-8-8-8-8-8-8-8-8-8-8---|
G|-8-8-8-8-8-8-8-8-8-8-8-8-8-8-8---|
D|-101010101010101010101010101010--|
A|---------------------------------|
E|---------------------------------|

Guitar II(Distorted) Just a random little riff you play twice at the end

e|--------------------------------------------------------------------------------------|
B|------8h9p8---------------------------------------------------------------------------|
G|-8h10-------h10p8---------------------------------------------------------------------|
D|--------------------------------------------------------------------------------------|
A|--------------------------------------------------------------------------------------|
E|--------------------------------------------------------------------------------------|



7. Something in You

Tuning: Standard (EADGBe)

The first half of this song is mostly piano, but someone else has the chords on here you
can look up if you
want to play the first part.


[Verse 2]

Starts at "I can't see the floor..." This part is incredibly easy by the way...

Guitar I Repeat until the bass guitar kicks in after "There's something in you, I
believe in..."

e|----------------------------------|
B|-9-9-9-9-9-9-9-9-9-9-9-9-9-9-9-9--|
G|-9-9-9-9-9-9-9-9-9-9-9-9-9-9-9-9--|
D|----------------------------------|
A|----------------------------------|
E|----------------------------------|

Guitar II Same thing, just mess around with when to play each note...

e|-----------------------------------------------------------------------------------|
B|--9---------9-----------9-----10---------9-----------------------------------------|
G|--9---------9-----------9-----9----------9-----------------------------------------|
D|-----------------------------------------------------------------------------------|
A|-----------------------------------------------------------------------------------|
E|-----------------------------------------------------------------------------------|

Guitar I/II(Heavy Distortion) (x2)

Starts at "There's something in you, I believe in..."

e|------------------------------------------------------------------|
B|------------------------------------------------------------------|
G|------------------------------------------------------------------|
D|-6-6-6-6-6-6-6-6--------------------------------------------------|
A|-4-4-4-4-4-4-4-4-7-7-7-7-7-7-7-7-2-2-2-2-2-2-2-2-2-2-2-2-2-2-2-2--|
E|-----------------5-5-5-5-5-5-5-5-0-0-0-0-0-0-0-0-0-0-0-0-0-0-0-0--|
PM------------------------------------------------------------------|

"There's something in you, I believe in..." (x2)

e|---------------------------------0-0-0-0---------0-0-0-0----------|
B|-5-5-5-5-x-x-x-x-----------------0-0-0-0---------0-0-0-0----------|
G|-6-6-6-6-x-x-x-x---------x-x-x-x-1-1-1-1-x-x-x-x-1-1-1-1-x-x-x-x--|
D|-6-6-6-6-x-x-x-x-7-7-7-7-x-x-x-x-2-2-2-2-x-x-x-x-2-2-2-2-x-x-x-x--|
A|-4-4-4-4-x-x-x-x-7-7-7-7-x-x-x-x-2-2-2-2-x-x-x-x-2-2-2-2-x-x-x-x--|
E|-----------------5-5-5-5-x-x-x-x-0-0-0-0-x-x-x-x-0-0-0-0-x-x-x-x--|

Guitar I (x2) Stretch these bends out kind of longer than normal to get the sound from
the recording

e|----------------------------------------------------|
B|----------------------------------------------------|
G|-----x-x-x-x-----x-x-x-x------x-x-x-x------x-x-x-x--|
D|-----x-x-x-x-----x-x-x-x------x-x-x-x------x-x-x-x--|
A|-6b7-x-x-x-x-----x-x-x-x-9b11-x-x-x-x-9b11-x-x-x-x--|
E|-----x-x-x-x-7b9-x-x-x-x------x-x-x-x------x-x-x-x--|

Guitar II (x2)


e|---------------------------------0-0-0-0---------0-0-0-0----------|
B|-5-5-5-5-x-x-x-x-----------------0-0-0-0---------0-0-0-0----------|
G|-6-6-6-6-x-x-x-x---------x-x-x-x-1-1-1-1-x-x-x-x-1-1-1-1-x-x-x-x--|
D|-6-6-6-6-x-x-x-x-7-7-7-7-x-x-x-x-2-2-2-2-x-x-x-x-2-2-2-2-x-x-x-x--|
A|-4-4-4-4-x-x-x-x-7-7-7-7-x-x-x-x-2-2-2-2-x-x-x-x-2-2-2-2-x-x-x-x--|
E|-----------------5-5-5-5-x-x-x-x-0-0-0-0-x-x-x-x-0-0-0-0-x-x-x-x--|

Guitar I (x4)

e|-------------------------------------------------------------|
B|-------------------------------------------------------------|
G|-------------------------------------------------------------|
D|---6---6---9-------6---6---9--------6---6---9-----6---6---9--|
A|-7---7---7-------7---7---7--------7---7---7-----7---7---7----|
E|-------------------------------------------------------------|

Guitar II (x4)


e|---------------------------------0-0-0-0---------0-0-0-0----------|
B|-5-5-5-5-x-x-x-x-----------------0-0-0-0---------0-0-0-0----------|
G|-6-6-6-6-x-x-x-x---------x-x-x-x-1-1-1-1-x-x-x-x-1-1-1-1-x-x-x-x--|
D|-6-6-6-6-x-x-x-x-7-7-7-7-x-x-x-x-2-2-2-2-x-x-x-x-2-2-2-2-x-x-x-x--|
A|-4-4-4-4-x-x-x-x-7-7-7-7-x-x-x-x-2-2-2-2-x-x-x-x-2-2-2-2-x-x-x-x--|
E|-----------------5-5-5-5-x-x-x-x-0-0-0-0-x-x-x-x-0-0-0-0-x-x-x-x--|


[Solo]

Guitar III (Wah Effect) Tremolo pick each note below

                           Bend into this really slowly, like in the solo for Thanks a Lot

e|-12-11-9---------------------------------------------------------------------------|
B|---------------7--9---7--7b9-------------------------------------------------------|
G|-----------------------------------------------------------------------------------|
D|-----------------------------------------------------------------------------------|
A|-----------------------------------------------------------------------------------|
E|-----------------------------------------------------------------------------------|

Same catch as above on the bend...

e|-9--------------------------------------------------------------------------------|
B|------9-----7-----7b9-------------------------------------------------------------|
G|----------------------------------------------------------------------------------|
D|----------------------------------------------------------------------------------|
A|----------------------------------------------------------------------------------|
E|----------------------------------------------------------------------------------|

e|---------7-9---11b12---11-------------------------------------------------------------|
B|--9--9--------------------------------------------------------------------------------|
G|--------------------------------------------------------------------------------------|
D|--------------------------------------------------------------------------------------|
A|--------------------------------------------------------------------------------------|
E|--------------------------------------------------------------------------------------|

NO MORE TREMOLO PICKING

Play first half, then second half, then first half, then the guitars stop.

Guitar III

e|-14-14-14b16-14-12-11-12-----[--14-14-14b16--------|
B|-------------------------14--[--------------14b16--|
G|-----------------------------[---------------------|
D|-----------------------------[---------------------|
A|-----------------------------[---------------------|
E|-----------------------------[---------------------|

Guitar I/II

e|---------------------------------------------------|
B|---------------------------------------------------|
G|-----------------6-6-6-6--4-4-4-4------------------|
D|-4-4-4-4-7-7-7-7-6-6-6-6--4-4-4-4-4-4-4-4-7-7-7-7--|
A|-4-4-4-4-7-7-7-7-4-4-4-4--2-2-2-2-4-4-4-4-7-7-7-7--|
E|-2-2-2-2-5-5-5-5------------------2-2-2-2-5-5-5-5--|



8. Get Me Out of Here

Tuning: Standard (EADGBe)

A LOT of fun riffs in this song, also a lot of annoying eighth note bends...
Just a reminder: I am not a professional, but a novice. Any help on this song is
appreciated because it may not be 100% correct at parts. This is the overall hardest song to tab of the
whole album.


[Intro]

Piano plays twice, guitar once...

e|---------------------------------------------------------------------------------|
B|---1-----1--3-----1--------------------------------------------------------------|
G|------0--------------0-----------------------------------------------------------|
D|---------------------------------------------------------------------------------|
A|-3-------------3-----------------------------------------------------------------|
E|---------------------------------------------------------------------------------|


[Verse 1]

Guitar I (Stephan Jenkins)

These are just the chords, not the strumming pattern. There is also a good chord tab on this
site for this
song.

(x1)

e|-0------------0-------------0--------------3-------------------------------------|
B|-1------------1-------------0--------------3-------------------------------------|
G|-0------------2-------------0--------------0-------------------------------------|
D|-2------------2-------------2--------------0-------------------------------------|
A|-3------------0-------------2--------------2-------------------------------------|
E|----------------------------0--------------3-------------------------------------|

(x1)
                                      "Get me out of here..."
e|--------------------0---------------0------------1----------------------------------|
B|--------------------1---------------1------------1----------------------------------|
G|----2--------2------2---------------0------------2----------------------------------|
D|--3---3----3----3---2---------------2------------3----------------------------------|
A|----------------3---0---------------3------------3----------------------------------|
E|-1-------0---------------------------------------1----------------------------------|


[Verse 2]

Guitar I

e|-0------------0-------------0--------------3-------------------------------------|
B|-1------------1-------------0--------------3-------------------------------------|
G|-0------------2-------------0--------------0-------------------------------------|
D|-2------------2-------------2--------------0-------------------------------------|
A|-3------------0-------------2--------------2-------------------------------------|
E|----------------------------0--------------3-------------------------------------|


Guitar II (Kryz Reid - Slightly Distorted) Play VERY soft, I'm talking ppp!

e|-------------------------------------------------------------------|
B|-------------------------------------------------------------------|
G|-12--------/14-14-----16b17b16-h14\12------16-16-16b17b16-h14\12\--|
D|-------------------------------------------------------------------|
A|-------------------------------------------------------------------|
E|-------------------------------------------------------------------|

"And the floor seats are sensing fear..."

Guitar I

e|--------------------0---------------0------------1----------------------------------|
B|--------------------1---------------1------------1----------------------------------|
G|----2--------2------2---------------0------------2----------------------------------|
D|--3---3----3----3---2---------------2------------3----------------------------------|
A|----------------3---0---------------3------------3----------------------------------|
E|-1-------0---------------------------------------1----------------------------------|


Guitar II

e|------------------------------------------3--------------3--|
B|------------------------------------------1--------------1--|
G|------------------------------------------0--------------2--|
D|---------------------------2--------------2--------------3--|
A|----12-15-12----12-15-12---0--------------3-----------------|
E|-13----------12---------------------------------------------|


[Pre-Chorus Part I]

(x2)

Guitar I/II (Play loud as hell now)

"Could be the greatest...rockstar...ever..."
e|-0-----------0------------1-----------------------------------------------------|
B|-1-----------0------------1-----------------------------------------------------|
G|-2-----------0------------2-----------------------------------------------------|
D|-2-----------2------------3-----------------------------------------------------|
A|-0-----------2------------3-----------------------------------------------------|
E|-------------0------------1-----------------------------------------------------|


[Pre-Chorus Part II]

Guitar II only

e|--------------------------------------------------|
B|--------------------------------------------------|
G|-------16----17p16----16-------16----17p16----16--|
D|-17-17----17-------17----17-17----17-------17-----|
A|--------------------------------------------------|
E|--------------------------------------------------|

e|-----------------------------------------------------------------------------------|
B|---13-------13-------13------------------------------------------------------------|
G|------14-------14------------------------------------------------------------------|
D|-15------15-------15---------------------------------------------------------------|
A|-----------------------------------------------------------------------------------|
E|------------------------------12\--------------------------------------------------|


[Chorus]

Okay, so this part is very annoying to tab, so assume all bends are a half bend. Also
I'll just write the
chords as they happen.

Guitar II

  C                Am               Em                      F
e|------------------------------------------------------------------------------------|
B|-5-5-5-5-5-5-5-5-5-5-5-5-5-5-5-5--12-12-12-12-12-12-12-12-13-13-13-13-13-13-13-13---|
G|-8b8b8b8b8b8b8b8b8b8b8b8b8b8b8b8b-15b15b15b15b15b15b15b15b16b16b16b16b16b16b16b16b--|
D|------------------------------------------------------------------------------------|
A|------------------------------------------------------------------------------------|
E|------------------------------------------------------------------------------------|

C                  F                G                       F
e|------------------------------------------------------------------------------|
B|-5-5-5-5-5-5-5-5-5-5-5-5-5-5-5-5--12-12-12-12-12-12-12-12--------17-------17--|
G|-8b8b8b8b8b8b8b8b8b8b8b8b8b8b8b8b-15b15b15b15b15b15b15b15b-16b16b---16b16b----|
D|------------------------------------------------------------------------------|
A|------------------------------------------------------------------------------|
E|------------------------------------------------------------------------------|

  C                Am               Em                      F
e|------------------------------------------------------------------------------------|
B|-5-5-5-5-5-5-5-5-5-5-5-5-5-5-5-5--12-12-12-12-12-12-12-12-13-13-13-13-13-13-13-13---|
G|-8b8b8b8b8b8b8b8b8b8b8b8b8b8b8b8b-15b15b15b15b15b15b15b15b16b16b16b16b16b16b16b16b--|
D|------------------------------------------------------------------------------------|
A|------------------------------------------------------------------------------------|
E|------------------------------------------------------------------------------------|

  C                F                G
e|-------------------------------------------------|
B|-5-5-5-5-5-5-5-5-5-5-5-5-5-5-5----17------17-----|
G|-8b8b8b8b8b8b8b8b8b8b8b8b8b8b8b---16b19---16b17--|
D|-------------------------------------------------|
A|-------------------------------------------------|
E|-------------------------------------------------|


[Verse 2]

Guitar II

e|-0-----------------------------------------0--0--0-------------------------------|
B|-1-----------------------------------------1--1----1-----------------------------|
G|-0--------------------------2--------------2--2------2---------------------------|
D|-2--------------------------2----------------------------------------------------|
A|-3--------------------------0----------------------------------------------------|
E|---------------------------------------------------------------------------------|
                             PM--|                   This riff is a little tricky to master...
e|------------------------------------------------------------------------------------|
B|------------------------------------------------------------------------------------|
G|------------------------0----------------------------2b3b2--------------------------|
D|----------------------------------------------2--3-------3---2-3-2\-----------------|
A|----------------------------------------5--3-5--------------------------------------|
E|--0-------0-------------------------3-----------------------------------------------|
          PM--------------------------------------------------------------------------|

Guitar I

e|--------------------0-------------------------------------------------------------|
B|--------------------1-------------------------------------------------------------|
G|----2--------2------2-------------------------------------------------------------|
D|--3---3----3----3---2-------------------------------------------------------------|
A|----------------3---0-------------------------------------------------------------|
E|-1-------0------------------------------------------------------------------------|

Guitar II

e|----------------------------------------------------|
B|----------------------------------------------------|
G|--------------------------2------17-16----16-17-----|
D|--------------------------2------------19-------19--|
A|----12-15-12----12-15-12--0-------------------------|
E|-13----------12-------------------------------------|

   C                 F
e|-------------------------------------------------------------------------------|
B|------------------------------8------------------------------------------------|
G|-9-----------------9-----------------------------------------------------------|
D|-------------------------------------------------------------------------------|
A|-------------------------------------------------------------------------------|
E|-------------------------------------------------------------------------------|


[Chorus 2]

  C                Am               Em                      F
e|------------------------------------------------------------------------------------|
B|-5-5-5-5-5-5-5-5-5-5-5-5-5-5-5-5--12-12-12-12-12-12-12-12-13-13-13-13-13-13-13-13---|
G|-8b8b8b8b8b8b8b8b8b8b8b8b8b8b8b8b-15b15b15b15b15b15b15b15b16b16b16b16b16b16b16b16b--|
D|------------------------------------------------------------------------------------|
A|------------------------------------------------------------------------------------|
E|------------------------------------------------------------------------------------|

C                  F                G                       F
e|------------------------------------------------------------------------------|
B|-5-5-5-5-5-5-5-5-5-5-5-5-5-5-5-5--12-12-12-12-12-12-12-12--------17-------17--|
G|-8b8b8b8b8b8b8b8b8b8b8b8b8b8b8b8b-15b15b15b15b15b15b15b15b-16b16b---16b16b----|
D|------------------------------------------------------------------------------|
A|------------------------------------------------------------------------------|
E|------------------------------------------------------------------------------|

  C                Am               Em                      F
e|------------------------------------------------------------------------------------|
B|-5-5-5-5-5-5-5-5-5-5-5-5-5-5-5-5--12-12-12-12-12-12-12-12-13-13-13-13-13-13-13-13---|
G|-8b8b8b8b8b8b8b8b8b8b8b8b8b8b8b8b-15b15b15b15b15b15b15b15b16b16b16b16b16b16b16b16b--|
D|------------------------------------------------------------------------------------|
A|------------------------------------------------------------------------------------|
E|------------------------------------------------------------------------------------|

  C                F                G
e|-------------------------------------------------|
B|-5-5-5-5-5-5-5-5-5-5-5-5-5-5-5----17------17-----|
G|-8b8b8b8b8b8b8b8b8b8b8b8b8b8b8b---16b19---16b17--|
D|-------------------------------------------------|
A|-------------------------------------------------|
E|-------------------------------------------------|


[Pre-Bridge]

   C        G     C       G
e|------------------------------------------------------------------|
B|-----------------------------------------------------------17-----|
G|-12-12-12-7-7-7-12-12-12-7-7-7-----------------------14-17----17--|
D|--------------------------------12----------------17--------------|
A|-10-10-10-5-5-5-10-10-10-5-5-5------------------------------------|
E|------------------------------------------------------------------|

Guitar II


[Bridge]

Guitar II and III harmonize with each other, you just half to pick one to
play I guess...

Guitar II   (x4)

e|-----------------------------------------------------------------------------------|
B|----------17-----------------------------------------------------------------------|
G|----14-17----17--------------------------------------------------------------------|
D|-17--------------------------------------------------------------------------------|
A|-----------------------------------------------------------------------------------|
E|-----------------------------------------------------------------------------------|

Guitar III   (x4)

e|----------------------------------------------------------------------------------|
B|----------------------------------------------------------------------------------|
G|---------9------------------------------------------------------------------------|
D|----7-10---10---------------------------------------------------------------------|
A|-10-------------------------------------------------------------------------------|
E|----------------------------------------------------------------------------------|

Guitar II

e|----------15------------------------------|
B|-----------------------------17----17-----|
G|----14-17-----17-------14-17----17----17--|
D|-17-----------------17--------------------|
A|------------------------------------------|
E|------------------------------------------|

Guitar III

e|--------------------------------------|
B|---------8----------------------------|
G|---------------------------9----9-----|
D|----7-10---10---------7-10---10---10--|
A|-10----------------10-----------------|
E|--------------------------------------|

Guitar II

e|--------------------------------------------------------------------|
B|-20b22-20-20--18----------------------------------------------------|
G|----------------17\--19-17-16-19-17-16-19-17------------------------|
D|---------------------------------------------19-17\---------2-3-5\--|
A|--------------------------------------------------------2-3---------|
E|-----------------------------------------------------3-5------------|

Guitar III

e|-------------------------------------------------------------------------|
B|-------------------------------------------------------------------------|
G|-12b14-12-10-12-10-9\---12-10-9-12-10-9-12-10----------------------------|
D|---------------------------------------------12-10\-----7-9-10-9-10-12\--|
A|-----------------------------------------------------10------------------|
E|-------------------------------------------------------------------------|


[Breakdown]

Guitar I (x1)
                                  *Smack*                           *Smack*
e|------------------------0--0--0-------------0------------------3--|
B|-----1-----1---1h3p1-1--1--1--1---------------0-----------3-------|
G|---0---0-----0----------2--2--2-----------------0-----------------|
D|------------------------2--2--2-----------------------------------|
A|-3-------3--------------0--0--0-----------------------------------|
E|----------------------------------------0-----------3-------------|

Guitar I

e|--------------------------------------0-----0-------3----------------------------------|
B|------1-------1--------1-------1--------0-------3--------------------------------------|
G|----0---0---0---0----2---2---2---2---0----0--------------------------------------------|
D|---------------------------------------------------------------------------------------|
A|--3-------3--------0-------0-----------------------------------------------------------|
E|-----------------------------------0----------3----------------------------------------|

Guitar II

e|---------------------------------------------------------------|
B|---------------------------------------------------------------|
G|-12----------/14-14--------16b17b16-h14\12\----9--------9------|
D|-----------------------------------------------12b14----12b14--|
A|---------------------------------------------------------------|
E|---------------------------------------------------------------|


Guitar I

e|-1------------0--------------0--------------------------------------------------|
B|-1------------0--------------1--------------------------------------------------|
G|-2------------0--------------0--------------------------------------------------|
D|-3------------2--------------2--------------------------------------------------|
A|-3------------2--------------3--------------------------------------------------|
E|-1------------0-----------------------------------------------------------------|

Guitar II

e|-----------------------------0-------------------------------------------------------------|
B|-----------------------------1--------------------------------------------15b17----15b17\--|
G|-----------------------------0-------------12-12-12-7-7-7-12-12-12-7-7-7-------------------|
D|-----------------------------2-------------------------------------------------------------|
A|-8-----------7---------------3-------------10-10-10-5-5-5-10-10-10-5-5-5-------------------|
E|-------------------------------------------------------------------------------------------|


[Outro Chorus]

  C                Am               Em                      F
e|------------------------------------------------------------------------------------|
B|-5-5-5-5-5-5-5-5-5-5-5-5-5-5-5-5--12-12-12-12-12-12-12-12-13-13-13-13-13-13-13-13---|
G|-8b8b8b8b8b8b8b8b8b8b8b8b8b8b8b8b-15b15b15b15b15b15b15b15b16b16b16b16b16b16b16b16b--|
D|------------------------------------------------------------------------------------|
A|------------------------------------------------------------------------------------|
E|------------------------------------------------------------------------------------|

C                  F                G                       F
e|------------------------------------------------------------------------------|
B|-5-5-5-5-5-5-5-5-5-5-5-5-5-5-5-5--12-12-12-12-12-12-12-12--------17-------17--|
G|-8b8b8b8b8b8b8b8b8b8b8b8b8b8b8b8b-15b15b15b15b15b15b15b15b-16b16b---16b16b----|
D|------------------------------------------------------------------------------|
A|------------------------------------------------------------------------------|
E|------------------------------------------------------------------------------|

  C                Am               Em                      F
e|------------------------------------------------------------------------------------|
B|-5-5-5-5-5-5-5-5-5-5-5-5-5-5-5-5--12-12-12-12-12-12-12-12-13-13-13-13-13-13-13-13---|
G|-8b8b8b8b8b8b8b8b8b8b8b8b8b8b8b8b-15b15b15b15b15b15b15b15b16b16b16b16b16b16b16b16b--|
D|------------------------------------------------------------------------------------|
A|------------------------------------------------------------------------------------|
E|------------------------------------------------------------------------------------|

  C                F                 G
e|-----------------------------------------------------------|
B|-5-5-5-5-5-5-5-5-5-5-5-5-5-5-5-5-12-12-12-12-12-12-12-12---|
G|-8b8b8b8b8b8b8b8b8b8b8b8b8b8b8b8b15b15b15b15b15b15b15b15b--|
D|-----------------------------------------------------------|
A|-----------------------------------------------------------|
E|-----------------------------------------------------------|

The bends in this part are full bends...
  Am                   Em                    F
e|-------------------------------------------------------------------------------------|
B|-10-10-13-10-10-13-10-10-131210-10-10-13-10-10-13----------1010101010101010101010----|
G|-12b12b---12b12b---12b12b---------12b12b---12b12b---12109--12b12b12b12b12b12b12b12b--|
D|-------------------------------------------------------------------------------------|
A|-------------------------------------------------------------------------------------|
E|-------------------------------------------------------------------------------------|

e|---------------------------------------------------------------------|
B|-13-12----13-12------------------------------------------------------|
G|-------14-------12-12\14-12b14-12b14-12b14-12b14-12b14--------/(16)--|
D|---------------------------------------------------------------------|
A|---------------------------------------------------------------------|
E|---------------------------------------------------------------------|
   F       G     F       G       F        G
e|-----------------------------------------------------------------------------------|
B|-----------------------------------------------------------------------------------|
G|----------------------------------------14\12\-------------------------------------|
D|-----------------------------------------------------------------------------------|
A|-----------------------------------------------------------------------------------|
E|-----------------------------------------------------------------------------------|


[Outro]

Guitar I/II (Guitar II is now clean)

e|-------------0-----------------0----3-------------------------------------------------|
B|--1---1--3-----1----1---1--3-----1--1-------------------------------------------------|
G|----0-----------------0-------------0-------------------------------------------------|
D|------------------------------------2-------------------------------------------------|
A|-3---------3------3----------3------3-------------------------------------------------|
E|--------------------------------------------------------------------------------------|

Once again, this tab may have a lot of gray areas, but I tried to the best of my ability
to tab it as
accurately as possible. It took me close to 2 hours to do.



9. Blade

Tuning: Standard (EADGBe)

This song is one man's easy fingerpicking exercise, or another man's speed picking hellscape...

Overall this song is pretty easy, so I'll tab the general form of each chord, then the
change ups. And
obviouslythe wicked guitar solo.

Guitar I (Clean w/light reverb and chorus)

   G                                    Am
e|-----------------------------------------------------------------|
B|--------3-----3-----------3----3------------1---1-------1---1----|
G|----0------0----0----0-------0---0------2-----2---2--2----2---2--|
D|-----------------------------------------------------------------|
A|--------------------------------------0---0---------0--0---------|
E|-3----3------------3---3-----------------------------------------|
   C                                                        Only play this first part of the
D scale in the
                                                          first part of the first
chorus, the rest of the time
                                                 Em             D   it's the second part
e|------------------------------------------------------------[---------------[---------------|
B|-----1---1---------1---1-----------3---3------------0---0---[---3-----3---3-[------3---3----|
G|--0----0---0---0-----0---0----0------0---0------0-----0---0-[-----2-----2---[--2-----2---2--|
D|------------------------------------------------------------[-0-----0-------[0---0----------|
A|-3--3--------3---3------------------------------------------[---------------[---------------|
E|----------------------------3----3-----------0----0---------[---------------[---------------|

Whenever you go from a C to an Em, do this:
e|----------------------------------------------------------------------------------|
B|-------1---1p0-0------------------------------------------------------------------|
G|---0-----0------------------------------------------------------------------------|
D|----------------------------------------------------------------------------------|
A|-3---3----------------------------------------------------------------------------|
E|----------------------------------------------------------------------------------|

G                              Am
I took my blade, and I cut him deep
        C
And the blood bloomed red on his crisp white shirt
                         G
For your party guests to see

I could've run in the night
                                  Am
I could've slit his throat in his sleep
C
But I wanted you to see
                   G
The company you keep
D                                             C
I thought we went together like violence on a balmy night
D                                             C                 Em
I thought being alone with a violent man made you feel alright
                G
Can we get away tonight?

And your father said follow the money to the source
                    Am
That's what life is all about
                  C       Em
Then you fuck the source
                     G
Till the money comes out
D
You say that I'm a brute
C
Cause I fell faster than you
D
But I've got a heart that's true
C                                Em
And there's nothing that I won't do
                  G
To get away with you

Guitar I plays G Am C Em (x1) during solo


[Solo]

Guitar II(Heavy reverb and distortion)

NOTE: All the harmonics are pinch harmonics, AKA "Squealies" They are noted with a +
above them.

e|--------------------------------------------------------------------------------------|
B|-12---------------------12--12--------------------------------------------------------|
G|-14b16------------------12--12--------------------------------------------------------|
D|------------------------14--14--------------------------------------------------------|
A|--------------------------------------------------------------------------------------|
E|--------------------------------------------------------------------------------------|

e|-15---------------------------------------------------------------|
B|----17-15-17-15-15----------15------------------------------------|
G|-------------------16-14-16----16-14-12-14-12---------------------|
D|----------------------------------------------14-14--12-----------|
A|--------------------------------------------------------14-12-----|
E|--------------------------------------------------------------12--|
                                            +       +
e|-----------------------------------15/22----------17\ --------------------------------|
B|--------------------------------15--------17--15--------------------------------------|
G|-------------------14-12-14b16--------------------------------------------------------|
D|-------12-14-12-14--------------------------------------------------------------------|
A|-2/12---------------------------------------------------------------------------------|
E|--------------------------------------------------------------------------------------|
          +
e|------------------------------------|
B|------------------8-8-1012108-1010--|
G|-4b5b4--4---------9-9-9-9-9-9-9-9---|
D|------------------------------------|
A|------------------------------------|
E|------------------------------------|

e|-10-8-10-8---------------------------------------15-----------20-19\--------|
B|-----------10-8-8-----8-10-8--------------15-17-----17-15-17----------------|
G|-------------------9---------7-9-7------------------------------------------|
D|-----------------------------------9----------------------------------------|
A|----------------------------------------------------------------------------|
E|-----------------------------------------------------------------------3b4--|

D
Smile lights the slander in her eyes
          C
She's the dark clouds swirling in my skies

Play this little lick where marked with a * above it
e|-2h3p2----------------------------------------------------------------------------|
B|-------3--------------------------------------------------------------------------|
G|----------------------------------------------------------------------------------|
D|----------------------------------------------------------------------------------|
A|----------------------------------------------------------------------------------|
E|----------------------------------------------------------------------------------|

  D                          *
And the cocktail chatter all starts to dim
       C
Like a doppler away from me she spins
     D                  *
On a blue-black sea she starts to swim
     C                            Em
She betrayed me, all now on a whim

To get away with him
G
I took my blade
                             Am
But I couldn't get it all to drain
        C
I could see him bleeding differently
Em
Like teardrops in the rain

Cut the Em after he sings "Teardrops"



10. All These Things

Tuning: Standard (EADGBe)

Guitar I (Jenkins)


[Verse 1]

e|---------------------------------------------------------------------|
B|---2---2---2---2---2---2---2---2----2---2---2---2---2-----2---2---2--|
G|-----2-------2-------2-------2--------2-------2-------2---------2----|
D|---------------------------------------------------------------------|
A|-0-------0-------0-------0---------0-----0------0-------0------------|
E|---------------------------------------------------------------------|

e|-----------------------------------------------------------------------|
B|---2---2---2---2---2---2---2---2---2---2--2---2---2---2---2---2---2----|
G|-----2-------2-------2-------2-------2------2-------2-------2-------2--|
D|-0-------0----------------------------------------------0-------0------|
A|-----------------0-------0----------------------0----------------------|
E|---------------------------------2-------0-----------------------------|

e|---------------------0-------------------------------------------------------------|
B|---2---2---2---2---2---2-----------------------------------------------------------|
G|-----2-------2---------------------------------------------------------------------|
D|-2---------------------------------------------------------------------------------|
A|---------0-------0-----------------------------------------------------------------|
E|-----------------------------------------------------------------------------------|


[Chorus]

Guitar II (Clean; Guitar I play chords as listed)

This isn't the strumming pattern, just the duration. The pattern is super simple to
learn if you know the song
  Bm               D                 F#m                    E
e|----------------------------------------------------------------------------------|
B|----------------------------------------------------------------------------------|
G|-7-7-7-7-7-7-7-7-11-11-11-11-11-11-11-11-15-15-15-15-15-15-15-15-13-13-13-13-13-13-13-13--|
D|----------------------------------------------------------------------------------|
A|-5-5-5-5-5-5-5-5-9--9--9--9--9--9--9--9--12-12-12-12-12-12-12-12-11-11-11-11-11-11-11-11--|
E|----------------------------------------------------------------------------------|
  Bm                F#m                   C#m      D         A
e|-----------------------------------------------------------5-5-5-5-5-5-5-5-----------|
B|-----------------------------------------------------------2-2-2-2-2-2-2-2-----------|
G|-7-7-7-7-7-7-7-7-15-15-15-15-15-15-15-15-9-9-9-9-11111111--2-2-2-2-2-2-2-2-----------|
D|-----------------------------------------------------------2-2-2-2-2-2-2-2-----------|
A|-5-5-5-5-5-5-5-5-12-12-12-12-12-12-12-12-7-7-7-7-9-9-9-9---0-0-0-0-0-0-0-0-----------|
E|-------------------------------------------------------------------------------------|


[Verse 2]

e|---------------------------------------------------------------------|
B|---2---2---2---2---2---2---2---2----2---2---2---2---2-----2---2---2--|
G|-----2-------2-------2-------2--------2-------2-------2---------2----|
D|---------------------------------------------------------------------|
A|-0-------0-------0-------0---------0-----0------0-------0------------|
E|---------------------------------------------------------------------|

e|-----------------------------------------------------------------------|
B|---2---2---2---2---2---2---2---2---2---2--2---2---2---2---2---2---2----|
G|-----2-------2-------2-------2-------2------2-------2-------2-------2--|
D|-0-------0----------------------------------------------0-------0------|
A|-----------------0-------0----------------------0----------------------|
E|---------------------------------2-------0-----------------------------|

e|---------------------0-------------------------------------------------------------|
B|---2---2---2---2---2---2-----------------------------------------------------------|
G|-----2-------2---------------------------------------------------------------------|
D|-2---------------------------------------------------------------------------------|
A|---------0-------0-----------------------------------------------------------------|
E|-----------------------------------------------------------------------------------|


[Chorus]

Guitar II (Clean; Guitar I play chords as listed)

This isn't the strumming pattern, just the duration. The pattern is super simple to
learn if you know the song
  Bm               D                 F#m                    E
e|----------------------------------------------------------------------------------|
B|----------------------------------------------------------------------------------|
G|-7-7-7-7-7-7-7-7-11-11-11-11-11-11-11-11-15-15-15-15-15-15-15-15-13-13-13-13-13-13-13-13--|
D|----------------------------------------------------------------------------------|
A|-5-5-5-5-5-5-5-5-9--9--9--9--9--9--9--9--12-12-12-12-12-12-12-12-11-11-11-11-11-11-11-11--|
E|----------------------------------------------------------------------------------|
  Bm                F#m                   C#m      D         A
e|-----------------------------------------------------------5-5-5-5-5-5-5-5-----------|
B|-----------------------------------------------------------2-2-2-2-2-2-2-2-----------|
G|-7-7-7-7-7-7-7-7-15-15-15-15-15-15-15-15-9-9-9-9-11111111--2-2-2-2-2-2-2-2-----------|
D|-----------------------------------------------------------2-2-2-2-2-2-2-2-----------|
A|-5-5-5-5-5-5-5-5-12-12-12-12-12-12-12-12-7-7-7-7-9-9-9-9---0-0-0-0-0-0-0-0-----------|
E|-------------------------------------------------------------------------------------|


[Bridge]

  D            A           D           A          F#m    E      A
e|------------------------------------------------------------------------|
B|---------------------------------------------------------------2-2-2-2--|
G|-11-11-11-11-6--6--6--6--11-11-11-11-6--6--6--6-15--15--13-13--2-2-2-2--|
D|---------------------------------------------------------------2-2-2-2--|
A|-9--9--9--9--------------9--9--9--9-------------12--12--11-11--0-0-0-0--|
E|-------------5--5--5--5--------------5--5--5--5-------------------------|


[Breakdown]

Guitar II Starts at "'Cause all these things..."

e|-----------------------------------------------------------------------------------|
B|-2------0---------2---2---2---2----------------------------------------------------|
G|-2------2-----------2-------2------------------------------------------------------|
D|-----------------------------------------------------------------------------------|
A|----------------0-------0----------------------------------------------------------|
E|-----------------------------------------------------------------------------------|


[Chorus 3]

  Bm               D                 F#m                    E
e|----------------------------------------------------------------------------------|
B|----------------------------------------------------------------------------------|
G|-7-7-7-7-7-7-7-7-11-11-11-11-11-11-11-11-15-15-15-15-15-15-15-15-13-13-13-13-13-13-13-13--|
D|----------------------------------------------------------------------------------|
A|-5-5-5-5-5-5-5-5-9--9--9--9--9--9--9--9--12-12-12-12-12-12-12-12-11-11-11-11-11-11-11-11--|
E|----------------------------------------------------------------------------------|
  Bm                F#m                   C#m      D         A
e|-----------------------------------------------------------5-5-5-5-5-5-5-5-----------|
B|-----------------------------------------------------------2-2-2-2-2-2-2-2-----------|
G|-7-7-7-7-7-7-7-7-15-15-15-15-15-15-15-15-9-9-9-9-11111111--2-2-2-2-2-2-2-2-----------|
D|-----------------------------------------------------------2-2-2-2-2-2-2-2-----------|
A|-5-5-5-5-5-5-5-5-12-12-12-12-12-12-12-12-7-7-7-7-9-9-9-9---0-0-0-0-0-0-0-0-----------|
E|-------------------------------------------------------------------------------------|


[Outro Part I]

Starts at "Let that feelin'..."
  Bm                                D
e|--------------------------------------------------------------------------|
B|--------------------------------------------------------------------------|
G|-7-7-7-7-7-7-7-7-7-7-7-7-7-7-7-7-111111111111111115-15-15-15-15-15-15-15--|
D|--------------------------------------------------------------------------|
A|-5-5-5-5-5-5-5-5-5-5-5-5-5-5-5-5-9-9-9-9-9-9-9-9-12-12-12-12-12-12-12-12--|
E|--------------------------------------------------------------------------|

Guitar I

e|--------------------------------------------------------------------|
B|---2---2---2---2---2---2----2---2----2---2---2---2---2---2---2---2--|
G|-----2-------2-------2--------2--------2-------2-------2-------2----|
D|-----------------------------------0-------0-------0-------0--------|
A|-2-------2-------2--------2-----------------------------------------|
E|--------------------------------------------------------------------|


[Outro Part II]

Guitar I (Guitar II plays A octave)

e|----0-------0-------0-------0-------0-------0------|
B|--2---2---2---2---2---2---2---2---2---2---2---2-2--|
G|------------------------------------------------2--|
D|------------------------------------------------2--|
A|-0------0-------0-------0-------0-------0-------0--|
E|---------------------------------------------------|




11. Exiles

Tuning: Standard (EADGBe) CAPO 5th FRET

Guitar I (Jenkins)

Once again, not the exact strumming pattern since it's really hard to capture in
tablature. But it's
incredibly easy to figure out. Also be careful, because it sounds like the song switches
between 3/4 and 4/4.

(x6)   Note that the third string note is played very quietly and only on the right side
guitar, feel free to
leave it out if you want.

e|--------------------------------|
B|--------------------------------|
G|-2-2-2-2-2-2-2-2-2-2-2-2-2-2-2--|
D|-0-0-0-2-2-2-4-4-4-0-0-0-0-0-0--|
A|-0-0-0-0-0-0-0-0-0-2-2-2-0-0-0--|
E|--------------------------------|

On sixth playthrough, when you get to the fourth chord let it ring out in fourth notes instead...

Guitar II tremolo picks this:

e|------------------------------------------------------------------------------|
B|------------------------------------------------------------------------------|
G|-7----------------------------------------------------------------------------|
D|------------------------------------------------------------------------------|
A|------------------------------------------------------------------------------|
E|------------------------------------------------------------------------------|


[Verse 2]

(x5)

e|--------------------------------|
B|--------------------------------|
G|-2-2-2-2-2-2-2-2-2-2-2-2-2-2-2--|
D|-0-0-0-2-2-2-4-4-4-0-0-0-0-0-0--|
A|-0-0-0-0-0-0-0-0-0-2-2-2-0-0-0--|
E|--------------------------------|


[Chorus]

Guitar II (x4)


e|-3-3-3-3-0-0-0-0---------------------------------------------------------------------|
B|-3-3-3-3-2-2-2-2---------------------------------------------------------------------|
G|-0-0-0-0-2-2-2-2---------------------------------------------------------------------|
D|-0-0-0-0-0-0-0-0---------------------------------------------------------------------|
A|-2-2-2-2-0-0-0-0---------------------------------------------------------------------|
E|-3-3-3-3-----------------------------------------------------------------------------|


[Verse 2]

(x4)

e|--------------------------------|
B|--------------------------------|
G|-2-2-2-2-2-2-2-2-2-2-2-2-2-2-2--|
D|-0-0-0-2-2-2-4-4-4-0-0-0-0-0-0--|
A|-0-0-0-0-0-0-0-0-0-2-2-2-0-0-0--|
E|--------------------------------|

Guitar II tremolo picks this:

e|------------------------------------------------------------------------------|
B|------------------------------------------------------------------------------|
G|-7----------------------------------------------------------------------------|
D|------------------------------------------------------------------------------|
A|------------------------------------------------------------------------------|
E|------------------------------------------------------------------------------|


[Chorus 2]

(x4)

e|-3-3-3-3-0-0-0-0---------------------------------------------------------------------|
B|-3-3-3-3-2-2-2-2---------------------------------------------------------------------|
G|-0-0-0-0-2-2-2-2---------------------------------------------------------------------|
D|-0-0-0-0-0-0-0-0---------------------------------------------------------------------|
A|-2-2-2-2-0-0-0-0---------------------------------------------------------------------|
E|-3-3-3-3-----------------------------------------------------------------------------|


[Breakdown]

Guitar I plays around with this

e|-0----0-----0-------------------------------------------------------------------|
B|-2------2-----2-----------------------------------------------------------------|
G|-2--------2-----2---------------------------------------------------------------|
D|-0------------------------------------------------------------------------------|
A|-0------------------------------------------------------------------------------|
E|--------------------------------------------------------------------------------|

Guitar I then plays the following chord progression once the droning starts:

C D11 C D11 C D11 C D11

(x6)

e|--------------------------------|
B|--------------------------------|
G|-2-2-2-2-2-2-2-2-2-2-2-2-2-2-2--|
D|-0-0-0-2-2-2-4-4-4-0-0-0-0-0-0--|
A|-0-0-0-0-0-0-0-0-0-2-2-2-0-0-0--|
E|--------------------------------|

(x4)

e|-3-3-3-3-0-0-0-0---------------------------------------------------------------------|
B|-3-3-3-3-2-2-2-2---------------------------------------------------------------------|
G|-0-0-0-0-2-2-2-2---------------------------------------------------------------------|
D|-0-0-0-0-0-0-0-0---------------------------------------------------------------------|
A|-2-2-2-2-0-0-0-0---------------------------------------------------------------------|
E|-3-3-3-3-----------------------------------------------------------------------------|

(Play until fade out...)


e|--------------------------------|
B|--------------------------------|
G|-2-2-2-2-2-2-2-2-2-2-2-2-2-2-2--|
D|-0-0-0-2-2-2-4-4-4-0-0-0-0-0-0--|
A|-0-0-0-0-0-0-0-0-0-2-2-2-0-0-0--|
E|--------------------------------|



12. Say It

Tuning: Standard (EADGBe)


[Verse 1]

Guitar I (Jenkins)

e|-0-------------3------------------0---------------------------------------------|
B|-1-------------3------------------1---------------------------------------------|
G|-2-------------0------------------0---------------------------------------------|
D|-2-------------0------------------2---------------------------------------------|
A|-0-------------2------------------3---------------------------------------------|
E|---------------3----------------------------------------------------------------|

e|---------------------------------------------------------------------------------|
B|-1-------------------------------------------------------------------------------|
G|-2-------------0-------------------0---------------------------------------------|
D|-2-------------2----------0--------2---------------------------------------------|
A|-0-------------2----------2--------3---------------------------------------------|
E|---------------0----------3------------------------------------------------------|

Guitar I plays chords as listed...

C  Am Em x2

Guitar II plays this until the break

e|-----------------------------------------------------------------------------------|
B|-----------------------------------------------------------------------------------|
G|-7-7---7-7----7-7------------------------------------------------------------------|
D|-5-5---5-5----5-5------------------------------------------------------------------|
A|-----------------------------------------------------------------------------------|
E|-----------------------------------------------------------------------------------|

Guitar I: Am Em G Am Em G C

Guitar II These are the general riffs, just pay attention for when they go between each other.

e|------------------------------------------------------|
B|------------------------------------------------------|
G|-----7-----7-----7-----7------9------9------9------9--|
D|---5-----5-----5-----5-----10-----10-----10-----10----|
A|-5-----5-----5-----5-----7------7------7------7-------|
E|------------------------------------------------------|

Guitar I/II (x2)

e|----------------------------|
B|-3-3--3-3--3-3--3-3--3-3-3--|
G|-0-0--0-0--0-0--0-0--0-0-0--|
D|-0-0--0-0--0-0--0-0--0-0-0--|
A|-2-3--3-2--2-3--3-2--2-3-2--|
E|----------------------------|


[Verse 2]

Guitar II continues playing the part above.

Guitar I: C Am Em Em (x2)


[Chorus]

Guitar I/II: G Am Em Em (x2)


[Breakdown]

Guitar I/II: Am G C

Guitars pause until spoken line "You won't let anyone get near..."

Guitar I: G C Then pause again

Guitar II (Comes in at the line "Or the days you lived on a mattress..."

e|-----------------------------------------------------|
B|-----------------------------------------------------|
G|-----------------------------------------------------|
D|-10-9-10-9-9--------12-9----10-9-----10-9-10-9-9-----|
A|-------------10----------10----------------------10--|
E|-----------------------------------------------------|

e|-----------------------------------------------------|
B|-----------------------------------------------------|
G|-----------------------------------------------------|
D|-9b10b9-9-10-9----10-9--10-9-----10-9--9-10-9--------|
A|---------------10-----------------------------10-10--|
E|-----------------------------------------------------|

(x2)

e|-----------------------------------------------|
B|--------------------8--------8-10-10b12-10b12--|
G|------------------7---9----7-------------------|
D|-7h9p7-------7-9---------9---------------------|
A|-------7h10------------------------------------|
E|-----------------------------------------------|

e|-----------------------------------------------------10--------------------------|
B|-8-8-10-10b12-10b12-10-10-8-10----8-8-10-10b12-10b12----10-10-8------------------|
G|---------------------------------------------------------------------------------|
D|---------------------------------------------------------------------------------|
A|---------------------------------------------------------------------------------|
E|---------------------------------------------------------------------------------|

(x2)

e|------------------------------------------|
B|-0-13-0-12-0-10-0-12-0-13-0-12-0-10-0-12--|
G|------------------------------------------|
D|------------------------------------------|
A|------------------------------------------|
E|------------------------------------------|


e|--------------------------------------------------------------------------------------|
B|--8p7---------------------------------------------------------------------------------|
G|------h9p7-7-------7------------------------------------------------------------------|
D|-------------h10-9---10p9-7-----------------------------------------------------------|
A|----------------------------10/ ------------------------------------------------------|
E|--------------------------------------------------------------------------------------|

(x4) Acoustic comes back in with chords

   G                               C
e|------------------------------------------------------------------|
B|------------------------------------------------------------------|
G|-4-4-4-4-4-4-4-4-4-4-4-4-4-4-4-4-5-5-5-5-5-5-5-5-5-5-5-5-5-5-5-5--|
D|------------------------------------------------------------------|
A|------------------------------------------------------------------|
E|------------------------------------------------------------------|


[Guitar Solo/Outro]

Acoustic keeps playing G C pattern

e|------------------------------------0--|
B|------------------------------------1--|
G|-4-4-4-4-4-4-4-4-4-4-4-4-4-4-4------0--|
D|------------------------------------2--|
A|------------------------------------3--|
E|-------------------------------12/-----|

                            These 15th fret bends are 1/2's
e|-----------------------------------------------------|
B|--------------------------12-12-12-12-----15---------|
G|-9b11-----9----12--12b14--15b15b15b15b-------h16p14--|
D|-----------------------------------------------------|
A|-----------------------------------------------------|
E|-----------------------------------------------------|

(x3)

e|--15--14-----------14b15b14----------------|
B|--------15--15-15------------15--15-15-15--|
G|-------------------------------------------|
D|-------------------------------------------|
A|-------------------------------------------|
E|-------------------------------------------|


e|-----12---------12---------12---------12-------------|
B|-15--15b17--15--15b17--15--15b17--15--15b17--15------|
G|-----------------------------------------------------|
D|-----------------------------------------------------|
A|-----------------------------------------------------|
E|------------------------------------------------12/--|

Tremolo Pick This Part, and play the next two bars x2

e|-14-14-15-14-17-14-14-14-15-14-17-14-14-14-15-14-17-14-14-14-15-14-17-14-14--|
B|-----------------------------------------------------------------------------|
G|-----------------------------------------------------------------------------|
D|-----------------------------------------------------------------------------|
A|-----------------------------------------------------------------------------|
E|-----------------------------------------------------------------------------|


e|-15-15-17-15-19-15-15-15-17-15-19-15-15-15-17-15-19-15-15-15-17-15-19-15-15---|
B|------------------------------------------------------------------------------|
G|------------------------------------------------------------------------------|
D|------------------------------------------------------------------------------|
A|------------------------------------------------------------------------------|
E|------------------------------------------------------------------------------|

(x2)

e|-15-15-19-15-20-15-19-15-17-15-15-19-15-20-15-19-15-17-15-17-15-17-15-17-------|
B|-------------------------------------------------------------------------------|
G|-------------------------------------------------------------------------------|
D|-------------------------------------------------------------------------------|
A|-------------------------------------------------------------------------------|
E|-------------------------------------------------------------------------------|

(x2)

e|-15-15-20-15-20-15-19-15-17-15-15-20-15-20-15-19-15-17-15-17-15-17-15-17-------|
B|-------------------------------------------------------------------------------|
G|-------------------------------------------------------------------------------|
D|-------------------------------------------------------------------------------|
A|-------------------------------------------------------------------------------|

e|-15-17-15-17-15-17-15-17-15-17-15-17-20b22-------------------0--|
B|-------------------------------------------------------------1--|
G|-------------------------------------------------------------0--|
D|-------------------------------------------------------------2--|
A|-------------------------------------------------------------3--|
E|-------------------------------------------------12/------------|


e|-20b22---20b22-20b22--------0---------20b22-------22b24-22b24/---0--|
B|----------------------------1------------------------------------1--|
G|----------------------------0------------------------------------0--|
D|----------------------------2------------------------------------2--|
A|----------------------------3------------------------------------3--|
E|----------------------12/-------------------------------------------|

Then end on this:

e|----------------------------|
B|-3-3--3-3--3-3--3-3--3-3-3--|
G|-0-0--0-0--0-0--0-0--0-0-0--|
D|-0-0--0-0--0-0--0-0--0-0-0--|
A|-2-3--3-2--2-3--3-2--2-3-2--|
E|----------------------------|


************************************

| /   slide up
| \   slide down
| h   hammer-on
| p   pull-off
| ~   vibrato
| +   harmonic
| x   Mute note
| b   Bend
| pb  Pre-bend
| br  Bend release
| pbr Pre-bend release
| brb Bend release bend

************************************

            
            
Suggest correction
Creating personal tab
Creating personal tab
You can edit any tab online and save it as your Personal.

You can edit, replace or remove any tab part or add personal notes – all changes will be seen only by you.

Personal tabs can be accessed anytime from any device, even offline.
Learn more »
Give kudos to tab author, rate the tab!
1 2 3 4 5
comments
print report bad tab
3 comments total.
0 reply
jack_rossi1 57 May 19, 2016 03:12 PM

Awesome! Thank you!

0 reply
Pasalacqua87 58 May 20, 2016 07:06 AM

No problem!

0 reply
maimaihunt 10 Oct 10, 2016 09:42 PM

This is great, thanks so much. Is there anyway you could do a bass tab for the album? Or of any of the songs. So many cool bass lines on this album

guest
You may want to rate the tab now too:
select rating
Wanna post a correction for this tab? Suggest correction