Oops, an error
Loading. Please wait.

Graduate Bass Tab

version 2
version 2

Whole song

  • The other one is in the wrong tuning and presents ... Show more

Interactive

16 views 1 this week
no commentswrite comment
1 2 3 4 5
3 more votes to show rating
add to favorites
launch autoscroll
font size
0
reset
guitar tuner
Autoscroll
slow
fast
+/-
esc
set tempo
stop
Help us to improve Ultimate-Guitar.com Take our survey!
×
Author
Difficulty
Tuning
Tabbers playing skills
novice
D A D G B E
beginner ++
About this tab version
The other one is in the wrong tuning and presents only the main riff - not even the complete chorus. This is thorough, each filled tabbed out. Was this info helpful? Yes No
It's important for this to be in Drop D to be 100% right.

INTRO
x4 just guitar

THIS RIFF X4
G|------------------|
D|------------------|
A|--------5-5---5-5-|
D|-7---5---5---5-5--|

VERSE 1
   1 e & a 2 e & a 3 e & a 4 e & a
G|----------------------------------|
D|----------------------------------|
A|----------------------------------|
D|-5-5-5-5-5-5-5-5-5-5p0-0~~~~-7----|

   1 e & a 2 e & a 3 e & a 4 e & a
G|----------------------------------|
D|----------------------------------|
A|----------------------------------|
D|-5-5-5-5-5-5-5-5-5-5p0-0~~~~-7----|

   1 e & a 2 e & a 3 e & a 4 e & a
G|----------------------------------|
D|----------------------------------|
A|----------------------------------|
D|-5-5-5-5-5-5-5-5-5-5p0-0~~~~-7----|

   1 e & a 2 e & a 3 e & a 4 e & a
G|----------------------------------|
D|----------------------------------|
A|----------------------------------|
D|-5-5-5-5-5-5-5-5-5-5p0-0~~~~-7----|

   1 e & a 2 e & a 3 e & a 4 e & a
G|----------------------------------|
D|----------------------------------|
A|----------------------------------|
D|-5-5-5-5-5-5-5-5-5-5p0-0~~~~-7----|

   1 e & a 2 e & a 3 e & a 4 e & a
G|----------------------------------|
D|----------------------------------|
A|----------------------------------|
D|-5-5-5-5-5-5-5-5-5-5p0-0~~~~-7----|

   1 e & a 2 e & a 3 e & a 4 e & a
G|----------------------------------|
D|----------------------------------|
A|----------------------------------|
D|-5-5-5-5-5-5-5-5-5-5p0-0~~~~-7----|

   1 e & a 2 e & a 3 e &  a  4 e & a
G|------------------------------------|
D|------------------------------------|
A|------------------------------------|
D|-5-5-5-5-5-5-5-5-5-5/12-10h12~~7----|

G|------------------|
D|------------------|
A|--------5-5---5-5-|
D|-7---5---5---5-5--|

G|------------------|
D|------------------|
A|--------5-5---5-5-|
D|-7---5---5---5-5--|

G|------------------|
D|------------------|
A|--------5-5---5-5-|
D|-7---5---5---5-5--|

G|---------------------|
D|---------------------|
A|--------5-5---5------|
D|-7---5---5---5-5-0---|

CHORUS
G|---------------------------------------------------------|
D|---------------------------------------------------------|
A|-5-----5---5----3-3-3-3---3----5-5-5-5---5---------------|
D|---------------------------------------------5-5-5-5--5--|

G|---------------------------------------------------------|
D|---------------------------------------------------------|
A|-------5---5----3-3-3-3---3----5-5-5-5---5---------------|
D|---------------------------------------------5-5-5-5--5--|

G|---------------------------------------------------------|
D|---------------------------------------------------------|
A|-------5---5----3-3-3-3---3----5-5-5-5---5---------------|
D|---------------------------------------------5-5-5-5--5--|

G|---------------------------------------------------------|
D|---------------------------------------------------------|
A|-------5---5----3-3-3-3---3----5-5-5-5---5---1-1-1-1--0--|
D|---------------------------------------------------------|

VERSE 2
   1 e & a 2 e & a 3 e & a 4 e & a
G|----------------------------------|
D|----------------------------------|
A|----------------------------------|
D|-5-5-5-5-5-5-5-5-5-5p0-0~~~~-7----|

   1 e & a 2 e & a 3 e & a 4 e & a
G|----------------------------------|
D|----------------------------------|
A|----------------------------------|
D|-5-5-5-5-5-5-5-5-5-5p0-0~~~~-7----|

   1 e & a 2 e & a 3 e & a 4 e & a
G|----------------------------------|
D|----------------------------------|
A|----------------------------------|
D|-5-5-5-5-5-5-5-5-5-5p0-0~~~~-7----|

   1 e & a 2 e & a 3 e &  a  4 e & a
G|------------------------------------|
D|------------------------------------|
A|------------------------------------|
D|-5-5-5-5-5-5-5-5-5-5/12-0~~~~~~7----|

   1 e & a 2 e & a 3 e & a 4 e & a
G|----------------------------------|
D|----------------------------------|
A|----------------------------------|
D|-5-5-5-5-5-5-5-5-5-5p0-0~~~~-7----|

   1 e & a 2 e & a 3 e & a 4 e & a
G|----------------------------------|
D|----------------------------------|
A|----------------------------------|
D|-5-5-5-5-5-5-5-5-5-5p0-0~~~~-7----|

   1 e & a 2 e & a 3 e & a 4 e & a
G|----------------------------------|
D|----------------------------------|
A|----------------------------------|
D|-5-5-5-5-5-5-5-5-5-5p0-0~~~~-7----|

   1 e & a 2 e & a 3 e & a 4 e & a
G|----------------------------------|
D|----------------------------------|
A|----------------------------------|
D|-5-5-5-5-5-5-5-5-5-5p0-0~~~~-7----|

CHORUS 2
G|---------------------------------------------------------|
D|---------------------------------------------------------|
A|-5-----5---5----3-3-3-3---3----5-5-5-5---5---------------|
D|---------------------------------------------5-5-5-5--5--|

G|---------------------------------------------------------|
D|---------------------------------------------------------|
A|-------5---5----3-3-3-3---3----5-5-5-5---5---1-1-1-1--0--|
D|---------------------------------------------------------|

GUITAR SOLO
G|------------2---2h4-----------------------|
D|---------2h4---4-------------------0-0-0--|
A|-2--2----------------2---2----------------|
D|------------------------------------------|


G|---------------16-------------------------|
D|------------16----16\\--------------------|
A|-2--2----14---------------2--2------------|
D|------------------------------------------|

G|----------------------------------|
D|----------------------------------|
A|-----------------------------5----|
D|-5-5-5-5-5-5-5-5-5-5p0-0~~~~------|

G|----------------------------------|
D|----------------------------------|
A|-----------------------------5----|
D|-5-5-5-5-5-5-5-5-5-5p0-0~~~~------|

G|------------------------------------------------------------------|
D|------------------------------------------------------------------|
A|-2-2-2-2-2-2-2-2-2-2-2-2-2-2-2-2-2-2-2-2-2-2-2-2-2-2-2-2-2-2-2-2--|
D|------------------------------------------------------------------|

G|----------------------------------|
D|----------------------------------|
A|-----------------------------5----|
D|-5-5-5-5-5-5-5-5-5-5p0-0~~~~------|

G|----------------------------------|
D|----------------------------------|
A|-----------------------------5----|
D|-5-5-5-5-5-5-5-5-5-5p0-0~~~~------|

G|-------------------------------------------------|
D|-------------------------------------------------|
A|-------------------------------------------------|
D|-7--7--7--7--7--7--7--7--7--7--7--7--7--7--7--7--|

BREAKDOWN
G|-------------------|
D|-------------------|
A|-------5-------5---|
D|--0h5p0--0h5p0-----|

G|--------------------|
D|--------------------|
A|-------5-------5-5--|
D|--0h5p0--0h5p0------|

G|-------------------|
D|-------------------|
A|-------5-------5---|
D|--0h5p0--0h5p0-----|

G|------------------|
D|------------------|
A|-------5-5----5---|
D|--0h5p0---0-0-----|

G|------------------|
D|------------------|
A|--------5-5---5-5-|
D|-7---5---5---5-5--|

G|------------------|
D|------------------|
A|--------5-5---5-5-|
D|-7---5---5---5-5--|

G|------------------|
D|------------------|
A|--------5-5---5-5-|
D|-7---5---5---5-5--|

G|-----------------------|
D|-----------------------|
A|--------5-5---5-5------|
D|-7---5---5---5-5----7--|

VERSE 3
   1 e & a 2 e & a 3 e & a 4 e & a
G|----------------------------------|
D|----------------------------------|
A|----------------------------------|
D|-5-5-5-5-5-5-5-5-5-5p0-0~~~~-7----|

   1 e & a 2 e & a 3 e & a 4 e & a
G|----------------------------------|
D|----------------------------------|
A|----------------------------------|
D|-5-5-5-5-5-5-5-5-5-5p0-0~~~~-7----|

   1 e & a 2 e & a 3 e & a 4 e & a
G|----------------------------------|
D|----------------------------------|
A|----------------------------------|
D|-5-5-5-5-5-5-5-5-5-5p0-0~~~~-7----|

   1 e & a 2 e & a 3 e &  a  4 e & a
G|------------------------------------|
D|------------------------------------|
A|------------------------------------|
D|-5-5-5-5-5-5-5-5-5-5/12-0~~~~~~7----|

G|---------------------|
D|---------------------|
A|------5-5---5-5------|
D|---5---5---5-5----7--|

G|-----------------------|
D|-----------------------|
A|--------5-5---5-5------|
D|-7---5---5---5-5----7--|

G|-----------------------|
D|-----------------------|
A|--------5-5---5-5------|
D|-7---5---5---5-5----7--|

G|-----------------------|
D|-----------------------|
A|--------5-5---5-5------|
D|-7---5---5---5-5----7--|

G|-------------|
D|-------------|
A|-------------|
D|-9~~~~~~~~~--|

Can I graduate
Can I graduate
Can I look in faces that I meet
Can I get my punk ass off the street
I've been living on for so long
Can I graduate
To the bastard talking down to me
Your whipping boy calamity
Cross your fingers, I'm going to knock it all down
Can I graduate
Echo fading we can't let go
She goes walking by in slow mo'
Sell your heart out for a buck
Go on fade out before I get stuck
Talking to somebody like you
Do you live the days you go through
Will this song live on long after we do
Can I graduate
Can I look in faces that I meet
Can I get my punk ass off the street
Won't die on the vine I want to knock it all down
Can I graduate
Echo fading, candle blow
Did you flash out long ago
Cross my fingers, I don't know
Someone poked you down below
Can I graduate
Can I graduate
Can I graduate
Can I graduate
Can I graduate
Can I get my punk ass off the street
Can I look in faces that I meet
I'm not waiting here for you to die
Will this song live on long after we do
Suggest correction
Give kudos to tab author, rate the tab!
1 2 3 4 5
comments
print report bad tab
guest
You may want to rate the tab now too:
select rating
Wanna post a correction for this tab? Suggest correction